Song name
# A B C D E F G H I J K L M N O P Q R S T U V W X Y Z

Roy Buchanan - Roys Bluz tab

#----------------------------------PLEASE NOTE--------------------------------#
#This file is the author's own work and represents their interpretation of the#
#song. You may only use this file for private study, scholarship, or research.#
#-----------------------------------------------------------------------------#
Date: Mon, 22 Sep 1997 06:09:08 +1000
From: cameron taylor 

Roy's Bluz
                                      Roy Buchanan
INTRO:
     Bm           Cmaj7        E7         F#7
E---|-------------------------|-------------------|
B---|--------3----------5-----|-----3--3-----3p2--|
G---|--------2----------4-----|-----1--1-----3----|  x2
D---|-----4----------5--------|-------------------|
A---|--2--------2/3--------2--|-------------------|
E---|-------------------------|--0--------2-------|

                            Bm7  Cmaj7  E7  F#7
Goin down to the graveyard
                                                     Bm7 Cmaj7 E7 F#7
Gotta see my baby gotta see my baby just one more time
                           Bm7  Cmaj7  A E F#7
Goin down to the graveyard
                                                             Bm7  Cmaj7
E7  F#7
Gotta see my baby gotta see my baby gotta see my baby just one more time

G                                           E7
You know she done sold her soul to the devil
                                             F#7  G  E7  F#7
And I'm just about just about to lose my mind

Bm7                       Cmaj7    E7          F#7
The train is always going  Always leaves at 3.09
RIFF 1:
E---|-----------------------------------------|
B---|-----------------------------------------|
G---|-----------------------------------------|
D---|--4--2--0--4--2--0-----------------------|
A---|--------------------------2--4--2-----2--|
E---|--------------------2--5-----------5-----|

Bm7                       Cmaj7    E7          F#7
The train is always going  Always leaves at 3.09
RIFF
2:
E---|--------------------------------------------|
B---|-----2--2-----2--2-----2--2-----------------|
G---|-----3--3-----3--3-----3--3-----------------|
D---|--4--------2--------------------------------|
A---|--------------------5--------4--------4--2--|
E---|--------------------------------2--5--------|

Bm7                                  Cmaj7     E7
Well I'm gonna tell a whole lot of people
                                F#7  G  G#7  A7
It's always left Buchanan behind

                                    Band enters - Blues in A
E---|----------12/14\12--14--15----|-15/17--------------|
B---|--10~~------------------------|-----------ETC------|
G---|------------------------------|--------------------|
D---|------------------------------|--------------------|
A---|------------------------------|--------------------|
E---|------------------------------|--------------------|

A
You ought to be ashamed
D
How could you treat me so bad
A
You ought to be ashamed
D
How could you treat me so damn bad
E7
You been talking bout poor old me
      D                                 A
And I thought you were the only thing I ever had

More guitar solo and close!!!!!

comments etc to hastings@hitech.net.au
Tap to rate this tab
# A B C D E F G H I J K L M N O P Q R S T U V W X Y Z