Song name
# A B C D E F G H I J K L M N O P Q R S T U V W X Y Z

Roy Buchanan - Done Your Daddy Dirty tab

Roy Buchanan - Done Your Daddy Dirty (Intro)
Album: Loading Zone (1977)

E|--------|
B|--------|
G|--------|
D|--0--2--|
A|--------|
E|--------|



E|--------------------------------|
B|--------------------------------|
G|--------------0-----------------|
D|--0--2--0--2-----2--0-----0--2--|
A|-----------------------2--------|
E|--------------------------------|



E|-----------------------|
B|-----------------------|
G|-----------------------|
D|-----------------------|
A|-----------------------|
E|--0--3--0--5--7--3--0--|



E|-----------|
B|-----------|
G|-----------|
D|-----0--2--|
A|--2--------|
E|-----------|
Tap to rate this tab
# A B C D E F G H I J K L M N O P Q R S T U V W X Y Z