Song name
# A B C D E F G H I J K L M N O P Q R S T U V W X Y Z

Royal Bliss - We Did Nothing Wrong tab

Song: We Did Nothing Wrong
Artist: Royal Bliss
Album: Life In-Between



0:05  volume fade-in    0:08	
Eb --------------------|-------------------------|
Bb --------------------|-------------------------|
Gb ---9~~~-(hold until-|-------------------------|
Db --------vocals)-----|-------------------------|
Ab --------------------|-(This is the bass line)-|
Eb --------------------|-0000000000000000(x2)----|

0:16 (vocals)
Eb --------------------------------------|
Bb --------------------------------------|
Gb --------------------------------------|
Db --------------------------------------|
Ab -----(Bass line)----------------------|
Eb -00000000777777773333333355555555(x4)-|

0:47 Guitar 1
Eb ----------------------|
Bb ----------------------|
Gb --9-------------------|
Db --9---9---5---7-------|
Ab --7---9---5---7-------|
Eb ------7---3---5-(x2)--|

0:47 Guitar 2
Eb --0----------------------|--0----------------|
Bb --0-7--------------------|--0-7--------------|
Gb --4---7-----7-6/7\6/7\6--|--4---7-----7------|
Db --5-----7-5--------------|--5-----7-5--------|
Ab -------------------------|-------------------|
Eb -------------------------|-------------------|

1:04
Eb ---------------------------------------|
Bb ---------------------------------------|
Gb --99-99-9------------------------------|
Db --99-99-9-99-99-9-55-55-5-77-77-7------|
Ab --77-77-7-99-99-9-55-55-5-77-77-7------|
Eb ----------77-77-7-33-33-3-55-55-5-(x2)-|

1:19 Guitar 1                         
Eb ----------------------------------|
Bb ----------------------------------|
Gb --99-99-9-------------------------|
Db --99-99-9-99-99-9-55-55-5-77-77-7-|
Ab --77-77-7-99-99-9-55-55-5-77-77-7-|
Eb ----------77-77-7-33-33-3-55-55-5-|

1:19 Guitar 2
Eb --12--12--12--12--14--14--14--14--15--15--15--15--14--14--14--14---|
Bb ----12--12--12--12--12--12--12--12--12--12--12--12--12--12--12--12-|
Gb -------------------------------------------------------------------|
Db -------------------------------------------------------------------|
Ab -------------------------------------------------------------------|
Eb -------------------------------------------------------------------|

1:26 Guitar 1 continued
Eb -----------------------------------|
Bb -----------------------------------|
Gb --99-99-9--------------------------|
Db --99-99-9-99-99-9-55-55-5-77777777-|
Ab --77-77-7-99-99-9-55-55-5-77777777-|
Eb ----------77-77-7-33-33-3-55555555-|

1:26 Guitar 2 continued
Eb --12--12--12--12--14--14--14--14--15--15--15--15--15--15--15--15---|
Bb ----12--12--12--12--12--12--12--12--12--12--12--12--12--12--12--12-|
Gb -------------------------------------------------------------------|
Db -------------------------------------------------------------------|
Ab -------------------------------------------------------------------|
Eb -------------------------------------------------------------------|

1:34                     1:49
Eb ---------------------|-------------------------------------------|
Bb ---------------------|-------------------------------------------|
Gb --9------------------|-9999----11111111--------------------------|
Db --9---9---5---7------|---------------------5555555577777777------|
Ab --7---9---5---7------|-7777----9-9-9-9-----5555555577777777------|
Eb ------7---3---5-(x2)-|-----0000--------00003333333355555555-(x2)-|

2:04 Guitar 1- Guitar Solo (w/ wah)
Eb ------------17b19--17b19-17-15----15-----------15-----------|             
Bb --/16b17~~---------------------15----15-15h17----17p15------|
Gb ------------------------------------------------------16----|
Db --------------------------------------------------------17--|
Ab ------------------------------------------------------------|
Eb ------------------------------------------------------------|

Guitar solo continued
Eb ---------14b15b14~--14h15p14h15p14h15p14h15p14\--/19b19.5~~--21b22-22b24-|
Bb -------------------------------------------------------------------------|
Gb -/15b16trem--------------------------------------------------------------|
Db -------------------------------------------------------------------------|
Ab -------------------------------------------------------------------------|
Eb -------------------------------------------------------------------------|

2:04 Guitar 2- Rhythm for solo		     2:20		
Eb -----------------------------------------|-----------------|
Bb -----------------------------------------|-----------------|
Gb --99-----1111----1212--------------------|-----------------|		
Db --99-----1111----1212-----77777777-------|-----------------|
Ab --77-----9-9-----1010-----77777777-------|---(Bass line)---|
Eb -----00------00-------00--55555555-(x2)--|-0--7--3--5-(x2)-|

2:36
Eb --------------------|-------------------------|
Bb --------------------|-------------------------|
Gb --------------------|-------------------------|
Db --------------------|-----------------7777777-|
Ab ----2-2---9---5---7-|---2-2---9---5---7777777-|
Eb --0---0---7---3---5-|-0---0---7---3---5555555-|

2:50
Eb ----------------------------------------|
Bb ----------------------------------------|
Gb ----------------------------------------|
Db --22222222999999995555555577777777------|
Ab --22222222999999995555555577777777------|
Eb --00000000777777773333333355555555-(x2)-|

3:05										
Eb ----------------------------------------------------------|           
Bb ----------------------------------------------------------|	
Gb -9999----11111111---12121212121212121414141414141414------|		
Db ----------------------------------------------------------|		
Ab -7777----9-9-9-9----10101010101010101212121212121212------|		
Eb -----0000-------0000---------------------------------(x2)-| 

3:20 Guitar 1         3:25 Guitar 2 Clean
Eb ------------------|--0---------|
Bb ------------------|--0---------|
Gb ------------------|--1---------|
Db --2---(hold until-|--2---------|
Ab --2-----the end)--|------------|
Eb --0---------------|------------|  

**NOTE: The 'trem' in the solo is tremolo picking, not a tremolo bar dive
	



Tap to rate this tab
 
# A B C D E F G H I J K L M N O P Q R S T U V W X Y Z