Song name
# A B C D E F G H I J K L M N O P Q R S T U V W X Y Z

Royal Bliss - Here They Come tab

Song: Here They Come
Artist: Royal Bliss
Album: After the Chaos II

They also re-recorded this song and put it on the Life In-Between album,
presumably so that they could have another strong hit on their major-label
debut but at the same time to avoid copyright payouts.  Don't quote me on
this.  It's just a guess.

Between the two versions, they are about 98% the same.  In my opinion, I
think the After the Chaos II version is better for its sound quality.  Here
also are the differences of the Life In-Between version: there are occasional
different notes where they do the bends during the chorus, there is an 
additional variance riff on top of the original verse riff, and they do some
harmonics before the chorus at the 2:00 mark.
 

NOTES FOR THIS VERSION
*They switch up which notes they are bending during the chorus, so I'll
 notate it all out.
*I have the rhythm guitar as 'Guitar 1' throughout the song because it has
 the most presence and you can't hear the other guitar that well but it
 provides very good accompaniment.  Guitar 2 is not really a 'lead' guitar
 so I have it listed as 'Guitar 2'


Tuning: Half-step down  Eb Ab Db Gb Bb Eb


0:00 Guitar 1
Eb -----------------|----------------|
Bb -----------------|----------------|
Gb -----------------|----------------|          **Make sure you are starting 
Db -----------------|3---3---3---3---|   (x4)     out with Guitar 2 (as seen
Ab -----------------|3---3---3---3---|            below) for the first 
Eb -----------------|1---1---1---1---|            measure.  Guitar 1 comes 
                                                  in on the second measure 
0:00 Guitar 2
Eb --8-7-5-8-7-5-8-7|8-8-8-8-8-8-8-8-|
Bb --5-5-5-5-5-5-5-5|6-6-6-6-6-6-6-6-|
Gb -----------------|----------------|   (x4)
Db -----------------|----------------|
Ab -----------------|----------------|
Eb -----------------|----------------|

0:12 Guitar 1                                                          5555
  pm-| |-| |-| |-| |-| |-| |-|                *For every set of 4 (ie. 2222),
Eb ------------------------------------------| palm mute them all except the
Bb ------------------------------------------| the 3rd chord.  And on this 
Gb -5555222222222222555522222222-4--4--------|             2's           4's
Db -2222333300003333222233330000-2--2--------| last set of 0  before the 2,
Ab ------------------------------------(x2)--| you don't palm mute the 3rd
Eb ------------------------------------------| AND the 4th one.

0:12 Guitar 2
Eb -----------------------|-----------------------| *This pull-off only 
Bb -----------------------|-----------------------|  occurs as you are doing
Gb -----------------------|-----------------------|  the above riff on its
Db --7~-------------------|-------------*10-p7~---|  2nd go-round.  Listen
Ab -----------------------|-----------------------|  to see where this comes
Eb -----------------------|-----------------------|  in with the above riff

0:25 Guitar 1
Eb -----------------|----------------|
Bb -----------------|----------------|
Gb -----------------|----------------| 
Db -----------------|3---3---3---3---|   (x2)
Ab -----------------|3---3---3---3---|
Eb -----------------|1---1---1---1---|

0:25 Guitar 2
Eb --8-7-5-8-7-5-8-7|8-8-8-8-8-8-8-8-|
Bb --5-5-5-5-5-5-5-5|6-6-6-6-6-6-6-6-|
Gb -----------------|----------------|   (x2)
Db -----------------|----------------|
Ab -----------------|----------------|
Eb -----------------|----------------|

0:31 Guitar 1
  pm-| |-| |-| |-| |-| |-| |-|                
Eb ------------------------------------------|
Bb ------------------------------------------|
Gb -5555222222222222555522222222-4--4--------|
Db -2222333300003333222233330000-2--2--------|
Ab ------------------------------------------|
Eb -----------------------------------(x2)---|

0:31 Guitar 2
Eb -----------------------|------------------------| *Remember that this 2nd
Bb -----------------------|------------------------|  measure correlates with
Gb -----------------------|------------------------|  the repeat of the above
Db --7~-----------------10|p7~---------10-p7~------|  riff.  It does not
Ab -----------------------|------------------------|  directly linearly 
Eb -----------------------|------------------------|  correlate with what is
                                                     literally above it. This
                                                 first pull-off occurs at the
                                           end of the above riff on its 1st 
                                           run, even though it looks like it
                                           is right in the middle of it.
                                        All the rest of the measures line up 
0:44 Guitar 1
Eb ------------------------------------|---------------------------------|
Bb ------------------------------------|---------------------------------|
Gb ------------------55555-------------|-----------------77777-----------|
Db --77777---33333---55555---222-555---|-77777---33333---77777---22222---|
Ab --77777---33333---33333---222-555---|-77777---33333---55555---22222---|
Eb --55555---11111-----------000-333---|-55555---11111-----------00000---|

0:44 Guitar 2
Eb -------------------------------------|----------------------------------|
Bb -------------------------------------|----------------------------------|
Gb ------8b9------------------8b9-11b12-|----8b9----11b12---13b14-13b14-13-|
Db -------------9b10--------------------|----------------------------------|
Ab -----------------3p2p0(**x4)---------|----------------------------------|
Eb -------------------------------------|----------------------------------|

**This is some sort of jumble and it's really hard to distinguish it.  This
  does not mean play this entire measure 4 times.  It just simply means that
  you only do this pull-off sequence 4 times, but there isn't any room to
  notate that out, so that's what I put.  So you do it really fast one after
  another like: 3p2p03p2p03p2p03p2p0.  Since it was hard to pick it out of
  the song, I probably have it wrong, but it's the best I could come up with
  that sounded at least somewhat like it.  I'll also list some additional
  possibilities for this jumble at the bottom of the tab.  But it's not 
  crucial for the sake of playing the song so you don't need to include it if
  you don't want to.

0:56 Guitar 1
  pm-| |-| |-| |-| |-| |-| |-|                
Eb ------------------------------------------|
Bb ------------------------------------------|
Gb -5555222222222222555522222222-4--4--------|
Db -2222333300003333222233330000-2--2--------|
Ab ------------------------------------------|
Eb ------------------------------------------|

0:56 Guitar 2
Eb ------------------|
Bb ------------------|  *Tremolo picking
Gb --14~~trem*-------|
Db ------------------|
Ab ------------------|
Eb ------------------|

1:03 Guitar 1 continued         1:09
                               pm-| |-| |-| |-| |-| |-| |-| 
Eb ----------------------------|-----------------------------------|
Bb ----------------------------|-----------------------------------|
Gb ---(it goes silent-----4--4-|-5555222222222222555522222222-4--4-|
Db ------right here)------2--2-|-2222333300003333222233330000-2--2-| 
Ab ----------------------------|-----------------------------------|
Eb ----------------------------|-----------------------------------|

1:03 Guitar 2 continued         1:09                  
Eb ----------------------------|-----------------------------------|
Bb ----------------------------|-----------------------------------|
Gb ----------------------------|-----------------------------------|
Db -7~--------10-p7~---------10|p7~------------10-p7~--------------|
Ab ----------------------------|-----------------------------------|
Eb ----------------------------|-----------------------------------|

1:15 Guitar 1
Eb -------------------------------------|----------------------------------|
Bb -------------------------------------|----------------------------------|
Gb ------------------55555--------------|-----------------55555------------|
Db --77777---33333---55555---222-555----|-77777---33333---55555---222-555--|
Ab --77777---33333---33333---222-555----|-77777---33333---33333---222-555--|
Eb --55555---11111-----------000-333----|-55555---11111-----------000-333--|

1:15 Guitar 2
Eb -------------------------------------|----------------------------------|
Bb -------------------------------------|----------------------------------|
Gb ------8b9------------------8b9-11b12-|-----8b9-----9b10----9b10-9--7----|
Db -------------9b10--------------------|----------------------------------|
Ab ------------------3p2p0(**x4)--------|----------------------------------|
Eb -------------------------------------|----------------------------------|

Guitar 1 continued
Eb -------------------------------------|-------------------------------|
Bb -------------------------------------|-------------------------------|
Gb ------------------55555--------------|-----------------77777---------|
Db --77777---33333---55555---222-555----|-77777---33333---77777---22222-|
Ab --77777---33333---33333---222-555----|-77777---33333---55555---22222-|
Eb --55555---11111-----------000-333----|-55555---11111-----------00000-|

Guitar 2 continued
Eb -------------------------------------|----------------------------------|
Bb -------------------------------------|----------------------------------|
Gb ------8b9----9b10----------8b9-7-----|----8b9----11b12---13b14-13b14-13-|
Db -------------------------------------|----------------------------------|
Ab -----------------3p2p0(**x4)---------|----------------------------------|
Eb -------------------------------------|----------------------------------|

1:41 Guitar 1
Eb -----------------|----------------|
Bb -----------------|----------------|
Gb -----------------|----------------|           
Db -----------------|3---3---3---3---|   (x2)
Ab -----------------|3---3---3---3---|            
Eb -----------------|1---1---1---1---|

1:41 Guitar 2
Eb --8-7-5-8-7-5-8-7|8-8-8-8-8-8-8-8-|
Bb --5-5-5-5-5-5-5-5|6-6-6-6-6-6-6-6-|
Gb -----------------|----------------|   (x2)
Db -----------------|----------------|
Ab -----------------|----------------|
Eb -----------------|----------------|

1:48 Guitar 2 (on its own right here)
Eb ---------------------------------------------------|
Bb -------------13---12-------------------------------|
Gb -13b14-------14---14------------14trem*-(fades in)-|  *Tremolo picking   
Db ---------------------10-p7~------------------------|
Ab ---------------------------------------------------|
Eb ---------------------------------------------------|

2:00 Guitar 1
Eb -------------------------------------|----------------------------------|
Bb -------------------------------------|----------------------------------|
Gb ------------------55555--------------|-----------------55555------------|
Db --xxxx7---33333---55555---222-555----|-77777---33333---55555---222-555--|
Ab --xxxx7---33333---33333---222-555----|-77777---33333---33333---222-555--|
Eb --xxxx5---11111-----------000-333----|-55555---11111-----------000-333--|

2:00 Guitar 2
Eb -------------------------------------|----------------------------------|
Bb -------------------------------------|----------------------------------|
Gb ---------------------------8b9-11b12-|-----8b9-----9b10----9b10-9--7----|
Db -------------9b10--------------------|----------------------------------|
Ab ------------------3p2p0(**x4)--------|----------------------------------|
Eb -------------------------------------|----------------------------------|

Guitar 1 continued
Eb -------------------------------------|-------------------------------|
Bb -------------------------------------|-------------------------------|
Gb ------------------55555--------------|-----------------77777---------|
Db --77777---33333---55555---222-555----|-77777---33333---77777---22222-|
Ab --77777---33333---33333---222-555----|-77777---33333---55555---22222-|
Eb --55555---11111-----------000-333----|-55555---11111-----------00000-|

Guitar 2 continued
Eb -------------------------------------|----------------------------------|
Bb -------------------------------------|----------------------------------|
Gb ------8b9-----9b10--------8b9-11b12--|-----8b9----11b12--13b14-13b14-13-|
Db -------------------------------------|----------------------------------|
Ab ------------------3p2p0(**x4)--------|----------------------------------|
Eb -------------------------------------|----------------------------------|

2:25 Guitar 1
Eb -------------------------------------|----------------------------------|
Bb -------------------------------------|----------------------------------|
Gb ------------------55555--------------|-----------------55555------------|
Db --77777---33333---55555---222-555----|-77777---33333---55555---222-555--|
Ab --77777---33333---33333---222-555----|-77777---33333---33333---222-555--|
Eb --55555---11111-----------000-333----|-55555---11111-----------000-333--|

2:25
Guitar 2
Eb -------------------------------------|-----------------------------------|
Bb -------------------------------------|-----------------------------------|
Gb ------8b9-----------------8b9-11b12--|-----8b9-----9b10-------------9b10-|
Db -------------9b10--------------------|--------------------9b10-11b12-----|
Ab ------------------3p2p0(**x4)--------|-----------------------------------|
Eb -------------------------------------|-----------------------------------|

Guitar 1 continued
Eb -------------------------------------|----------------------------------|
Bb -------------------------------------|----------------------------------|
Gb ------------------55555--------------|-----------------55555------------|
Db --77777---33333---55555---222-555----|-77777---33333---55555---222-555--|
Ab --77777---33333---33333---222-555----|-77777---33333---33333---222-555--|
Eb --55555---11111-----------000-333----|-55555---11111-----------000-333--|

Guitar 2 continued
Eb -------------------------------------|-----------------------------------|
Bb -------------------------------------|-----------------------------------|
Gb ------8b9-----------------8b9-11b12--|-----8b9-----9b10-------------9b10-|
Db -------------9b10--------------------|--------------------9b10-11b12-----|
Ab ------------------3p2p0(**x4)--------|-----------------------------------|
Eb -------------------------------------|-----------------------------------|

2:50 Guitar 1
Eb -------------------------------------|----------------|
Bb -------------------------------------|----------------|
Gb ------------------55555--------------|----------------|
Db --77777---33333---55555---222-555----|----------------|
Ab --77777---33333---33333---222-555----|----------------|
Eb --55555---11111-----------000-333----|----------------|

2:50 Guitar 2
Eb -------------------------------------|----------------|
Bb -------------------------------------|----------------|
Gb ------8b9----9b10---------8b9-11b12--|----------------|
Db -------------------------------------|----------------|
Ab -----------------3p2p0(**x4)---------|----------------|
Eb -------------------------------------|----------------|

END


Here are some other possible jumbles that I came up with:
Eb --------------------|-----------------------|
Bb --------------------|-----------------------|
Gb --------------------|-----------------------|
Db --------------------|-----------------------|
Ab -3p2p0-0-3p2p03p2p0-|-0h2h30h2h3-3p2p03p2p0-|
Eb ------3-------------|-----------------------|

CP
 
Tap to rate this tab
# A B C D E F G H I J K L M N O P Q R S T U V W X Y Z