Song name
# A B C D E F G H I J K L M N O P Q R S T U V W X Y Z

Royal Bliss - Brave tab

Help us improve GuitareTab! Take a short survey!
Artist: Royal Bliss
Song: Brave
Album: After the Chaos II

Tuning: Half-step down  Eb Ab Db Gb Bb Eb

--Part A
Eb ---------------|
Bb ---------------|
Gb ---------------|
Db ---------------|
Ab --2-222-5p2-0--| (x8)
Eb ---------------|

--Part B  (this is just Guitar 1's part that gets used later in the song)
0:13 Guitar 1
Eb ----------|---------|---------|----------|
Bb ----------|---------|---------|----------|
Gb -4-44-444-|7-77-777-|---------|----------|
Db -4-44-444-|7-77-777-|2-22-222-|4-4x-4-4x-|
Ab -2-22-222-|5-55-555-|2-22-222-|4-4x-4-4x-|
Eb ----------|---------|0-00-000-|2-2x-2-2x-|

0:13 Guitar 2
Eb ---------------|---------------|---------------|---------------|
Bb ---------------|---------------|---------------|---------------|
Gb -11-1111-11119-|11-1111-111111-|12-1212-121212-|-14-141414-12--|
Db ---------------|---------------|---------------|---------------|
Ab -9--9-9--9-9-7-|9--9-9--9-9-9--|10-1010-101010-|-12-121212-10--|
Eb ---------------|---------------|---------------|---------------|

Guitar 1 continued
Eb ----------|---------|---------|---------|
Bb ----------|---------|---------|---------|
Gb -4-44-444-|---------|---------|---------|
Db -4-44-444-|7-77-777-|5-55-555-|2-22-222-|
Ab -2-22-222-|7-77-777-|5-55-555-|2-22-222-|
Eb ----------|5-55-555-|3-33-333-|0-00-000-|

Guitar 2 continued                                   0:25
Eb ----------------|-----------|------------|--------|--|
Bb ----------------|-----------|------------|--------|--|
Gb -11-1111-111111-|9-99-/11\9-|7-777-7/9\7-|9-99-7-6|4-| This last chord 
Db ----------------|-----------|------------|--------|--| lines up exactly
Ab -9--9-9--9-9-9--|7-77-/9-\7-|5-555-5/7\5-|7-77-5-4|2-| with the first 
Eb ----------------|-----------|------------|--------|--| chord of the next
                                                          line.
--Part C
0:25 Guitar 1
Eb ---------------------------------------------|
Bb ---------------------------------------------|
Gb -4--------------------4-4x-------------------|
Db -4--------------------4-4x-------5-5x--7-7x--|
Ab -2-------5-5x--7-7x---2-2x-------5-5x--7-7x--|
Eb ---------3-3x--5-5x--------------3-3x--5-5x--|

0:36 Guitar 1
      pm-----------|  pm----|   pm---|   pm-----------|  pm----|
Eb -----------------------------------|---------------------------------|
Bb -----------------------------------|---------------------------------|
Gb -----------------------------------|---------------------------------|
Db -4-44444444444442------------------|4-44444444444444----------7777777|
Ab -2-22222222222220-5-555555-7-777777|2-22222222222222-5-555555-7777777|
Eb ------------------3-333333-5-555555|-----------------3-333333-5555555|

0:49 Guitar 1  -Part B (x1)
---Do Part B of Guitar 1 (both the first line and the continued line) one
   time.  Guitar 2 plays a different part here, so here it is:

--Part B-2
0:49 Guitar 2                                        *
Eb ------2p0--|------2p0--|------2p0--|-------------------|
Bb ---------3-|----3----3-|----0----3-|-2-2-h3p2h3p2h3p2--| *Does this part
Gb ----4------|---2-------|---0-------|-----------------2-|  faster
Db ---4-------|-0---------|-----------|-------------------|
Ab -2---------|-----------|-----------|-------------------|
Eb -----------|-----------|-3---------|-------------------|

Guitar 2 continued
Eb ------2p0--|-----------|------5p3-0-|-----0-----|
Bb ---------3-|----2-3p2--|---0-3------|------0----|
Gb ----4------|---------2-|-0----------|----0--0---|
Db ---4-------|---2-------|------------|---2-------|
Ab -2---------|-0---------|------------|--2--------|
Eb -----------|-----------|------------|-0---------|

1:01 Guitar 1  -Part A (x4)
1:01 Guitar 2
Eb -------2p0--|
Bb ---3------3-|
Gb -4--44------| (x4)
Db ------------|
Ab ------------|
Eb ------------|

1:07 Guitar 1  -Part C (x1)
1:07 Guitar 2
Eb -------2p0--|------2p0--|------5p3-0-|-----------|
Bb ---3------3-|--3------3-|---0--------|---2--3p2--|
Gb -4--44------|4--44------|0---00------|2-2-2----2-|
Db ------------|-----------|------------|-----------| (x2)
Ab ------------|-----------|------------|-----------|
Eb ------------|-----------|------------|-----------|

1:18 Guitar 1
      pm-----------|  pm----|   pm---|   pm-----------|  pm----|
Eb -----------------------------------|---------------------------------|
Bb -----------------------------------|---------------------------------|
Gb -----------------------------------|---------------------------------|
Db -4-44444444444442------------------|4-44444444444444----------7------|
Ab -2-22222222222220-5-555555-7-777777|2-22222222222222-5-555555-7------|
Eb ------------------3-333333-5-555555|-----------------3-333333-5------|

1:18 Guitar 2                          *
Eb -777799991010101010101010-|77779999-2-|  *Backstroke.  
Bb -777777777-7-7-7-7-7-7-7--|77777777-2-|   I couldn't tell what this 
Gb --------------------------|---------2-|   chord was so it's probably wrong
Db ---------------------(x3)-|---------0-|
Ab --------------------------|-----------|
Eb --------------------------|-----------|

1:30 Guitar 1  -Part B (x2)
1:30 Guitar 2  -Part B-2 (x2)

1:54 Guitar 1
Eb -----------------------------------|
Bb -----------------------------------|
Gb -----------------------------------|
Db -5-555555555555555777777777777777--|
Ab -5-555555555555555777777777777777--| (x4)
Eb -3-333333333333333555555555555555--|

1:54 Guitar 2            *
Eb ---------------------------------|  *There are some harmonics in the
Bb ---------------------------------|   background here only on the first
Gb -4-44466667777777766667777999999-|   time but I could not figure them out
Db ---------------------------------|
Ab -2-22244445555555544445555777777-| (x2)->The other 2 times just Guitar
Eb ---------------------------------|       1 is playing

2:18        pm-----------------------------------------| 
Eb ------------------------------------|-------------------------------|
Bb ------------------------------------|-------------------------------|
Gb ------------------------------------|-------------------------------|
Db -4----------------------------------|4---------------5555555-7------|
Ab -2--------2222222-5--------7--------|22222222222222225555555-7------|
Eb ------------------3-333333-5-5555555|----------------3333333-5------|

2:32  Guitar 1 -Part B (x2)
2:32  Guitar 2 -Part B-2 (x2)

2:56 Guitar 1 -Part B (x1)
2:56 Guitar 2 (here there is a slight variation to B-2):
                                                     *
Eb ------2p0--|------2p0--|------2p0--|-------------------|
Bb ---------3-|----3----3-|----0----3-|-2-2-h3p2h3p2h3p2--|
Gb ----4------|---2-------|---0-------|-----------------2-|
Db ---4-------|-0---------|-----------|-------------------|
Ab -2---------|-----------|-----------|-------------------|
Eb -----------|-----------|-3---------|-------------------|

Guitar 2 continued
Eb -------2p0--|----0-5p3-0-|----3-5p3-0-|x0000000-|
Bb -----3----3-|/2----------|/3----------|x5555555-|
Gb --4---------|------------|------------|---------|
Db ------------|------------|------------|---------|
Ab ------------|------------|------------|---------|
Eb ------------|------------|------------|---------|

3:08 Guitar 1 -Part A (x8)
3:08 Guitar 2
Eb ----------14p12---|
Bb ----15---------15-|
Gb -16---1616--------|
Db ------------------| (x8)
Ab ------------------|
Eb ------------------|

3:19 Guitar 1
Eb -----|
Bb -----|
Gb -4\--|
Db -4\--|
Ab -2\--|
Eb -----|

CP
Related for Brave tab