Song name
# A B C D E F G H I J K L M N O P Q R S T U V W X Y Z

Royal Bliss - Like A Child tab

Song: Like a Child
Artist: Royal Bliss
Album: After the Chaos II

Tuning: Half-step down  Eb Ab Db Gb Bb Eb

0:10 Light distortion
Eb --------------------------------|-----------------------------------|
Bb --------------------------------|-----------------------------------|
Gb --------------------------------|-----------------------------------|
Db --------------------------------|-----------------------------------|
Ab -----6-------6-------64------46-|------6-------6---6666666666666666-|
Eb -0-0--7--0-0--7--4-4-----4-4----|--0-0--7--0-0--7--4444444444444444-|

--Part A
0:19  Heavier distortion
Eb --------------------------------|------------------------------|
Bb --------------------------------|------------------------------|
Gb --------------------------------|------------------------------|
Db --------------------------------|------------------6---6---4-4-|
Ab -----6-------6-------64------46-|------6-------6---6---6---4-4-|
Eb -0-0--7--0-0--7--4-4-----4-4----|--0-0--7--0-0--7--4---4---2-2-|

--Part B (for Guitar 1 and Guitar 2)
0:29 Guitar 1 Clean                                         *Distorted
Eb -0---0---0---0--|0---0---0---0--|--------------|------------------|
Bb -5---5---5---4--|5---5---5---4--|/5~--/7-4~--2-|/5~--/7-4~--------|
Gb ----------------|---------------|--------------|------------------|
Db ----------------|---------------|--------------|---------99999999-|
Ab ----------------|---------------|--------------|---------99999999-|
Eb ----------------|---------------|--------------|---------77777777-|

0:29 Guitar 2
The first 2 measures it uses some tremolo pedal effect but not for the last 2
Eb -------0-2------|------0-2------|/4~--/5-2~--0-|/4~--/5-2~--|
Bb -2------------0-|2--------------|--------------|------------|
Gb ----------------|---------------|--------------|------------|
Db ----------------|---------------|--------------|------------|
Ab ----------------|---------------|--------------|------------|
Eb ----------------|---------------|--------------|------------|

--Part C
0:47
Eb -----------------------------------|--------------------------------|
Bb -----------------------------------|--------------------------------|
Gb -----8/9------8/9-----9/11-----9\8-|----8/9------8/9----------------|
Db -----------------------------------|-----------------9-9-9\-6-6-6-6-|
Ab -----6/7------6/7-----7/9------7\6-|----6/7------6/7-9-9-9\-6-6-6-6-|
Eb -9-9-----5--5-----7-7-----4--4-----|9-9-----5--5-----7-7-7\-4-4-4-4-|

--Part A-2
0:57
Eb --------------------------------|-----------------------------------|
Bb --------------------------------|-----------------------------------|
Gb --------------------------------|-----------------------------------|
Db --------------------------------|------------------6---6/--9-9------|
Ab -----6-------6-------64------46-|------6-------6---6---6/--9-9--7h9-|
Eb -0-0--7--0-0--7--4-4-----4-4----|--0-0--7--0-0--7--4---4/--7-777----|

1:08 Part A
1:17 Part B (For both Guitars 1 and 2)
1:36 Part C
1:45 Part A-2
1:55 Part A

========================================================================
Solo
2:04 Guitar 2-Lead
Eb -------------------------------------|------------------------11b12-11-|
Bb ------12b14--12b14b12----------------|-----12b14--12b14b12-------------|
Gb ----------------------13b14b13-11----|---------------------13----------|
Db -/11------------------------------14-|/11------------------------------|
Ab -------------------------------------|---------------------------------|
Eb -------------------------------------|---------------------------------|

2:04 Harmonizing solo
Eb -------------------------------------|-----11b12--11b12b11-------------|
Bb -------------------------------------|---------------------------------|
Gb -------------------------------------|---------------------------------|
Db -------------------------------------|---------------------------------|
Ab -------------------------------------|---------------------------------|
Eb -------------------------------------|---------------------------------|

2:14 Lead solo continued
Eb -------------------------------------|-----------------------------------|
Bb ------12b14--12b14b12----------------|-----12b14--12b14b12---------------|
Gb ----------------------13b14b13-11----|---------------------13b14b13-11---|
Db -/11------------------------------14-|/11-----------------------------14-|
Ab -------------------------------------|-----------------------------------|
Eb -------------------------------------|-----------------------------------|

2:14 Harmonizing solo continued
Eb -------------------------------------|-----11b12--11h12/14-12h14/16-/17-|
Bb -------------------------------------|----------------------------------|
Gb -------------------------------------|----------------------------------|
Db -------------------------------------|----------------------------------|
Ab -------------------------------------|----------------------------------|
Eb -------------------------------------|----------------------------------|

Rhythm for solo
2:04 Guitar 1                   * Only do the x's on 2nd time
Eb ------------------------------xxxx------|-------------------------xxxx--|
Bb ------------------------------xxxx------|-------------------------xxxx--|
Gb -6-6-6------------------------xxxx------|6-6-6--------------------xxxx--|
Db -6-6-6---7-7-7---9-9-9---6-6-6xxxx-(x3)-|6-6-6---7-7-7---9--9--6-6xxxx--|
Ab -4-4-4---7-7-7---9-9-9---6-6-6xxxx------|4-4-4---7-7-7---9--9--6-6xxxx--|
Eb ---------5-5-5---7-7-7---4-4-4xxxx------|--------5-5-5---7--7--4-4xxxx--|

==========================================================================

2:23 Guitar 1
Eb ---------------------|---------|
Bb ---------------------|---------|
Gb ---------------------|---------|
Db --2------------------|99999999-|
Ab --2------------------|99999999-|
Eb --0------------------|77777777-|

2:23 Guitar 2 (continuing off the harmonizing solo)
Eb --12~~---------------|11~------|
Bb ---------------------|---------|
Gb ---------------------|---------|
Db ---------------------|---------|
Ab ---------------------|---------|
Eb ---------------------|---------|

2:32 Part A-2 (x3)
3:02 Part A

3:11
Eb ------|
Bb ------|      At the 3:19 one guitar slides up on one note and the other
Gb ------|      guitar slides up from a different note a few seconds later
Db -2----|
Ab -2----|
Eb -0----|

CP
Tap to rate this tab
# A B C D E F G H I J K L M N O P Q R S T U V W X Y Z