Song name
# A B C D E F G H I J K L M N O P Q R S T U V W X Y Z

Royal Hunt - Memory Lane tab

Royal Hunt- Memory Lane (www.royalhunt.com)

This is the easier portion of the solo lasting from about 2:52 - 3:03. If i'm feeling 
i might tab out the other parts later. I couldn't find tabs for this (or any of their 
so i decided to do it myself. Hopefully someone will get some use out of this.

16th notes played at a tempo of about 130

e |--------------------------------------16-19-18-19--|
B |--------------------------14-----------------------|
G |--13-16-15-16----16-15-16----16-15-16--------------|
D |--------------13-----------------------------------|
A |---------------------------------------------------|
E |---------------------------------------------------|

e |---------------------------------------------------|
B |--------------------------12----------11-14-12-11--|
G |--12-15-13-15----15-13-15----15-13-15--------------|
D |--------------13-----------------------------------|
A |---------------------------------------------------|
E |---------------------------------------------------|

e |--------------------------------------14-18-16-18--|
B |---------------------------------------------------|
G |--11-15-13-11----15-13-15-16-15-13-15--------------|
D |--------------11-----------------------------------|
A |---------------------------------------------------|
E |---------------------------------------------------|

e |---------------------------------------------------|
B |--------------------------------------11-----------|
G |--10-13-11-13----13-11-13-10-13-11-13----13-11-13--|
D |--------------11-----------------------------------|
A |---------------------------------------------------|
E |---------------------------------------------------|

e |--------------------------------------12-16-14-16--|
B |--------------------------11-----------------------|
G |---9-13-11-13----13-11-13----13-11-13--------------|
D |---------------9-----------------------------------|
A |---------------------------------------------------|
E |---------------------------------------------------|

e |--11-14-12-14----14-12-14----14-12-14-11-14-12-14--|
B |--------------12-----------------------------------|
G |--------------------------11-----------------------|
D |---------------------------------------------------|
A |---------------------------------------------------|
E |---------------------------------------------------|
Tap to rate this tab
 
# A B C D E F G H I J K L M N O P Q R S T U V W X Y Z