Royal Hunt - Back To Square One tab

-------------------------------------------------------------------------------
			     BACK TO SQUARE ONE - Royal Hunt
-------------------------------------------------------------------------------

Tabbed by: Isaias Garcia (TexasFury)

Tuning: D tuning



Rhythm guitar

     Intro - m.4                                                             
     H        Q    E  E     W                   H.           E  E   
D||----------------------|-------------------|---------------------|
A||----------------------|-------------------|---------------------|
F||----------------------|-------------------|---------------------|
C||----------------------|-------------------|---------------------|
G||----------------------|--0----------------|--L------------L-----|
D||-------------------3--|-------------------|------------------3--|


                             >                   PM PM PM PM PM PM PM PM  
  W                   E   E  Q    E  E  E  E     E  E  E  E  E  E  E  E   
-------------------|--------------------------|--------------------------|
-------------------|--------------------------|--------------------------|
-------------------|---------9----------------|--------------------------|
-------------------|---------9----------------|--------------------------|
-------------------|---------7----5--3--------|--------------------------|
--5----------------|--5\--0-------------3--5--|--5--5--5--5--5--5--5--5--|


  PM PM PM PM PM             PM PM PM PM PM PM PM PM  
  E  E  E  E  E  E  E  E     E  E  E  E  E  E  E  E   
--------------------------|--------------------------|
--------------------------|--------------------------|
--------------------------|--------------------------|
--------------------------|--------------------------|
--------------------------|--------------------------|
--5--5--5--5--5--2--3--4--|--5--5--5--5--5--5--5--5--|


                               PM PM PM PM PM PM PM PM  
  E    E  E  E  E  E  E  E     E  E  E  E  E  E  E  E   
----------------------------|--------------------------|
----------------------------|--------------------------|
----------------5-----------|--------------------------|
----------5--7--5--7--5-----|--------------------------|
-----5g7--5--7-----7--5--7--|--------------------------|
--5--5g7-----------------7--|--5--5--5--5--5--5--5--5--|


  PM PM PM                   PM PM PM PM PM PM                >                 
  E  E  E  E  E  E  E  E     E  E  E  E  E  E  E  E     E  E  Q    E  E  E  E   
--------------------------|--------------------------|-------------------------|
--------------------------|--------------------------|-------------------------|
--------------------------|--------------------------|-----9--9----7--5--------|
--------------------------|--------------------------|-----9--9----7--5--------|
--------------5--3--------|--------------------3-----|-------------------------|
--5--5--5--5--------0--3--|--5--5--5--5--5--5-----5--|--5----------------3--5--|


  PM PM PM PM PM PM PM PM    PM PM PM PM PM           
  E  E  E  E  E  E  E  E     E  E  E  E  E  E  E  E   
--------------------------|--------------------------|
--------------------------|--------------------------|
--------------------------|--------------------------|
--------------------------|--------------------------|
--------------------------|--------------------------|
--5--5--5--5--5--5--5--5--|--5--5--5--5--5--2--3--4--|


  PM PM PM PM PM PM PM PM                             
  E  E  E  E  E  E  E  E     E  E  E  E  E  E  E  E   
--------------------------|--------------------------|
--------------------------|--------------------------|
--------------------------|--------------5-----------|
--------------------------|--------5--7--5--7--5-----|
--------------------------|-----7--5--7-----7--5--7--|
--5--5--5--5--5--5--5--5--|--5--7-----------------7--|


                             >     >                 
  E  E  E  E  Q     E  E     E  E  Q    E  E  E  E   
--------------------------|-------------------------|
--------------------------|-------------------------|
-----5-----7--L~----5-----|-----8--7----7--5--------|
--7--5-----7--L~----5--7--|--7--8--7----7--5-----5--|
--7--------------------7--|--7----------------7--5--|
--------------------------|-------------------7-----|


                                                          Verse 1                
                              >                                            
  E  E  E  E   Q     E  E     Q    Q    E   E  E   E      W                 
---------------------------|--------------------------||-------------------|
---------------------------|--------------------------||-------------------|
-----5-----7~--L~----5-----|--------------------------||-------------------|
--7--5-----7~--L~----5--7--|--2-----------------------||-------------------|
--7---------------------7--|--2---------5p--3---------||-------------------|
---------------------------|--0----------------3h--5--||-------------------|


  W                   E    E  E  E   Q     E  E     E    E  E  E  E  E   Q      
-------------------|-----------------------------|-----------------------------|
-------------------|-----------------------------|-----------------------------|
-------------------|----------5--7~--L~----5-----|----------5--7-----5~--L~----|
-------------------|-----5g7--5--7~--L~----5--7--|-----5g7--5--7-----5~--L~----|
-------------------|--0--5g7------------------7--|--0--5g7---------------------|
-------------------|-----------------------------|-----------------------------|


  W                   H        Q     Q        E    E  E  E   Q     E  E   
-------------------|-----------------------|-----------------------------|
-------------------|-----------------------|-----------------------------|
-------------------|-----------------------|----------5--7~--L~----5-----|
-------------------|-----------------------|-----5g7--5--7~--L~----5--7--|
-------------------|-----------------------|--0--5g7------------------7--|
-------------------|----------------12\----|-----------------------------|


        >                           >   >                    >   >          
  E  E  Q    E  E  E  E     E  E  S E.  Q    Q       E  E  S E.  Q    Q     
-------------------------|------------------------|------------------------|
-------------------------|------------------------|------------------------|
-----8--7----7--5--------|-----7----7---7---------|-----7----7---7---------|
-----8--7----7--5--------|-----7----7---7---------|-----7----7---7---------|
----------------------3--|-----5----5---5---------|-----5----5---5---------|
-------------------5-----|--x--5----5---5---------|-----5----5---5---------|


                                                   Pre-chorus 1                
          >   >                    >                                 
  E  E  S E.  Q    Q       E  E  S E.  H           W                 
------------------------|-----------------------|-------------------|
------------------------|-----------------------|-------------------|
-----7----7---7---------|-----7----7---7--------|-------------------|
-----7----7---7---------|-----7----7---7--------|-------------------|
-----5----5---5---------|-----5----5---5--------|-------------------|
-----5----5---5---------|-----5----5---5--------|-------------------|


                      PM PM PM PM PM PM PM PM    PM PM PM PM PM PM        
  W                   E  E  E  E  E  E  E  E     E  E  E  E  E  E  E  E   
-------------------|--------------------------|--------------------------||
-------------------|--------------------------|--------------------------||
-------------------|--------------------------|--------------------------||
-------------------|--------------------------|--------------------------||
-------------------|--------------------------|--------------------------||
-------------------|--1--1--1--1--1--1--1--1--|--0--0--0--0--0--0--3--4--||


  Chorus 1                                                  
  PM PM PM PM PM PM PM PM    PM PM PM PM              
  E  E  E  E  E  E  E  E     E  E  E  E  E  E  E  E   
--------------------------|--------------------------|
--------------------------|--------------------------|
--------------------------|--------------------------|
--------------------------|--------------------------|
--------------------------|--------------------------|
--5--5--5--5--5--5--5--5--|--5--5--5--5--5--2--3--4--|


  PM PM PM PM PM PM PM PM                               
  E  E  E  E  E  E  E  E     E    E  E  E  E  E  E  E   
--------------------------|----------------------------|
--------------------------|----------------------------|
--------------------------|----------------5-----------|
--------------------------|----------5--7--5--7--5-----|
--------------------------|-----5g7--5--7-----7--5--7--|
--5--5--5--5--5--5--5--5--|--5--5g7-----------------7--|


  PM PM PM PM PM PM PM PM    PM PM PM PM              
  E  E  E  E  E  E  E  E     E  E  E  E  E  E  E  E   
--------------------------|--------------------------|
--------------------------|--------------------------|
--------------------------|--------------7--5--------|
--------------------------|--------------7--5-----5--|
--------------------------|--------------------7--5--|
--5--5--5--5--5--5--5--5--|--5--5--5--5--------7-----|


                                                       Verse 2                        
                             >                                  PM               
  E  E  E  E  Q     E  E     Q    E  E  E  E  Q        Q     E  E  E  E  E  E    
--------------------------|------------------------||---------------------------|
--------------------------|------------------------||---------------------------|
-----5-----7--L~----5--7--|--9----7--7-----9--9----||--------5-----5------------|
--7--5-----7--L~----5--7--|--9----7--7-----9--9----||--7~-------7--------5--7~--|
--7-----------------3--5--|--7----5--5-----7--7----||-----------------7---------|
--------------------------|------------------------||---------------------------|


           PM                                          
  Q     E  E  E  E  E  E     E  E  E  E   Q     E  E   
--------------------------|---------------------------|
--------------------------|---------------------------|
--------5-----5--4--------|--------5--7~--L~----5-----|
--L~-------7--------5-----|--------5--7~--L~----5--7--|
-----------------------0--|--0--0------------------7--|
--------------------------|---------------------------|


  PM PM                                       PM  
  E  E  E  E  E  E   Q        H.           E  E   
---------------------------|---------------------|
---------------------------|---------------------|
--------5--7-----5~--L~----|--2------------L-----|
--------5--7-----5~--L~----|--2------------L-----|
--0--7---------------------|--0------------L--0--|
---------------------------|---------------------|


  PM PM PM PM    PM PM PM PM PM          PM                        
  S  S  S  S  E  E  S  S  S  S  E  E     E  E  E  E   Q     E  E   
--------------------------------------|---------------------------|
--------------------------------------|---------------------------|
--------------7-----------------7--7--|--------5--7~--L~----5-----|
--------------7-----------------7--7--|-----7--5--7~--L~----5--7--|
--5--5--5--5--5--5--5--5--5--5--5--5--|--0--7------------------7--|
--------------------------------------|---------------------------|


        >                           >   >                    >   >          
  E  E  Q    E  E  E  E     E  E  S E.  Q    Q       E  E  S E.  Q    Q     
-------------------------|------------------------|------------------------|
-------------------------|------------------------|------------------------|
-----8--7----7--5-----7--|-----7----7---7---------|-----7----7---7---------|
-----8--7----7--5--7--5--|-----7----7---7---------|-----7----7---7---------|
-------------------7-----|-----5----5---5---------|-----5----5---5---------|
-------------------------|--x---------------------|------------------------|


                                                      Pre-chorus 2                
          >   >                    >                                    
  E  E  S E.  Q    Q       E  E  S E.  Q     Q        W                 
------------------------|--------------------------|-------------------|
------------------------|--------------------------|-------------------|
-----7----7---7---------|-----7----7---7-----------|-------------------|
-----7----7---7---------|-----7----7---7-----------|-------------------|
-----5----5---5---------|-----5----5---5-----------|-------------------|
------------------------|-------------------12\----|-------------------|


                      PM PM PM PM PM PM PM PM    PM PM PM PM PM PM            
  W                   E  E  E  E  E  E  E  E     E  E  E  E  E  E      Q      
-------------------|--------------------------|------------------------------||
-------------------|--------------------------|------------------------------||
-------------------|--------------------------|------------------------------||
-------------------|--------------------------|------------------------------||
-------------------|--------------------------|--------------------12g17\----||
-------------------|--1--1--1--1--1--1--1--1--|--3--3--3--3--3--3------------||


  Chorus 2                                                  
     >  PM >                    >  PM >     >  >  >   
  E  E  E  E  Q    E   E     E  E  E  E  E  E  E  E   
--------------------------|--------------------------|
--------------------------|--------------------------|
-----2--------2-----------|-----2--------2-----------|
-----2--------2-----------|-----2--------2-----------|
--0--0--0--0--0--------0--|--0--0--0--0--0--7--6--7--|
-------------------3b-----|--------------------------|


        PM >                       PM >               
  E  E  E  E  E  E  E  E     E  E  E  E  E  E  E  E   
--------------------------|--------------------------|
--------------------------|--------------------------|
-----7--------7-----------|-----7--------7-----------|
-----7--------7-----------|-----7--------7-----------|
--5--5--5--5--5--0--3--5--|--5--5--5--5--5--7--6--7--|
--------------------------|--------------------------|


         PM >                         PM >               
  E   E  E  E   E   E   Q       E  E  E  E  E  E  E  E   
-----------------------------|--------------------------|
-----------------------------|--------------------------|
-----------------------------|-----9--------------------|
-----10--------10--10--10----|-----9--------------------|
--8---8--8--8---8---8---8----|--7--7--------5--3--2-----|
-----------------------------|--------0--0-----------3--|


  PM                                >                 
  E  E  E  E   Q     E  E     E  E  Q    E  E  E  E   
---------------------------|-------------------------|
---------------------------|-------------------------|
--------5--7~--L~----5-----|-----9--9----7--5--------|
-----7--5--7~--L~----5--7--|-----9--9----7--5--------|
--0--7------------------7--|--0----------------------|
---------------------------|-------------------3--5--|


     >  PM >                    >  PM >     >  >  >   
  E  E  E  E  Q    E   E     E  E  E  E  E  E  E  E   
--------------------------|--------------------------|
--------------------------|--------------------------|
-----2--------2-----------|-----2--------2-----------|
-----2--------2-----------|-----2--------2-----------|
--0--0--0--0--0--------0--|--0--0--0--0--0--7--6--7--|
-------------------3b-----|--------------------------|


        PM >                       PM >                                      
  E  E  E  E  E  E  E  E     E  E  E  E  E  E  E  E     E   E  H.            
--------------------------|--------------------------|----------------------|
--------------------------|--------------------------|----------------------|
-----7--------7-----------|-----7--------7-----------|---------8------------|
-----7--------7-----------|-----7--------7-----------|-----10---------------|
--5--5--5--5--5--0--3--5--|--5--5--5--5--5--7--6--7--|--8-------------------|
--------------------------|--------------------------|----------------------|


  E  E  H.              W                   E   E  Q    H          
---------------------|-------------------|-----------------------|
---------------------|-------------------|-----------------------|
--------7------------|--2----------------|---------8----9--------|
-----9---------------|--2----------------|-----10-------9--------|
--7------------------|--0----------------|--8-----------7--------|
---------------------|-------------------|-----------------------|


  Guitar Solo - m.89                                                                       
              >   >                    >   >                    >   >          
  E   E  S E.  Q    Q       E  E  S E.  Q    Q       E  E  S E.  Q    Q     
-------------------------|------------------------|------------------------|
-------------------------|------------------------|------------------------|
------7----7---7---------|-----7----7---7---------|-----7----7---7---------|
------7----7---7---------|-----7----7---7---------|-----7----7---7---------|
------5----5---5---------|-----5----5---5---------|-----5----5---5---------|
--x---5----5---5---------|-----5----5---5---------|-----5----5---5---------|


          >                                                     
  E  E  S E.  H           W                   W                 
-----------------------|-------------------|-------------------|
-----------------------|-------------------|-------------------|
-----7----7---7--------|-------------------|-------------------|
-----7----7---7--------|-------------------|-------------------|
-----5----5---5--------|-------------------|-------------------|
-----5----5---5--------|-------------------|-------------------|


  PM PM PM PM PM PM PM PM    PM PM PM PM PM PM  PM  PM   
  E  E  E  E  E  E  E  E     E  E  E  E  E  E   E   E    
--------------------------|-----------------------------||
--------------------------|-----------------------------||
--------------------------|-----------------------------||
--------------------------|-----------------------------||
--------------------------|-----------------------------||
--1--1--1--1--1--1--1--1--|--3--3--3--3--3--3--12---L\--||


  Chorus 3                                                  
     >  PM >                    >  PM >     >  >  >   
  E  E  E  E  Q    E   E     E  E  E  E  E  E  E  E   
--------------------------|--------------------------|
--------------------------|--------------------------|
-----2--------2-----------|-----2--------2-----------|
-----2--------2-----------|-----2--------2-----------|
--0--0--0--0--0--------0--|--0--0--0--0--0--7--6--7--|
-------------------3b-----|--------------------------|


        PM >                       PM >               
  E  E  E  E  E  E  E  E     E  E  E  E  E  E  E  E   
--------------------------|--------------------------|
--------------------------|--------------------------|
-----7--------7-----------|-----7--------7-----------|
-----7--------7-----------|-----7--------7-----------|
--5--5--5--5--5--0--3--5--|--5--5--5--5--5--7--6--7--|
--------------------------|--------------------------|


         PM >                         PM >               
  E   E  E  E   E   E   Q       E  E  E  E  E  E  E  E   
-----------------------------|--------------------------|
-----------------------------|--------------------------|
-----------------------------|-----9--------------------|
-----10--------10--10--10----|-----9--------------------|
--8---8--8--8---8---8---8----|--7--7--------5--3--2-----|
-----------------------------|--------0--0-----------3--|


  PM                          PM    >                 
  E  E  E  E   Q     E  E     E  E  Q    E  E  E  E   
---------------------------|-------------------------|
---------------------------|-------------------------|
--------5--7~--L~----5-----|-----9--9----7--5--------|
-----7--5--7~--L~----5--7--|-----9--9----7--5--------|
--0--7------------------7--|--0----------------------|
---------------------------|-------------------3--5--|


     >  PM >                    >  PM >     >  >  >   
  E  E  E  E  Q    E   E     E  E  E  E  E  E  E  E   
--------------------------|--------------------------|
--------------------------|--------------------------|
-----2--------2-----------|-----2--------2-----------|
-----2--------2-----------|-----2--------2-----------|
--0--0--0--0--0--------0--|--0--0--0--0--0--7--6--7--|
-------------------3b-----|--------------------------|


        PM >                       PM >                                      
  E  E  E  E  E  E  E  E     E  E  E  E  E  E  E  E     E   E  H.            
--------------------------|--------------------------|----------------------|
--------------------------|--------------------------|----------------------|
-----7--------7-----------|-----7--------7-----------|---------8------------|
-----7--------7-----------|-----7--------7-----------|-----10---------------|
--5--5--5--5--5--0--3--5--|--5--5--5--5--5--7--6--7--|--8-------------------|
--------------------------|--------------------------|----------------------|


  E  E  H.              W                   E   E  Q    H         
---------------------|-------------------|-----------------------|
---------------------|-------------------|-----------------------|
--------7------------|--2----------------|---------8----9--------|
-----9---------------|--2----------------|-----10-------9--------|
--7------------------|--0----------------|--8-----------7--------|
---------------------|-------------------|-----------------------|


     >  PM >                    >  PM >     >  >  >   
  E  E  E  E  Q    E   E     E  E  E  E  E  E  E  E   
--------------------------|--------------------------|
--------------------------|--------------------------|
-----2--------2-----------|-----2--------2-----------|
-----2--------2-----------|-----2--------2-----------|
--0--0--0--0--0--------0--|--0--0--0--0--0--7--6--7--|
-------------------3b-----|--------------------------|


        PM >                       PM >               
  E  E  E  E  E  E  E  E     E  E  E  E  E  E  E  E   
--------------------------|--------------------------|
--------------------------|--------------------------|
-----7--------7-----------|-----7--------7-----------|
-----7--------7-----------|-----7--------7-----------|
--5--5--5--5--5--0--3--5--|--5--5--5--5--5--7--6--7--|
--------------------------|--------------------------|


         PM >                         PM >               
  E   E  E  E   E   E   Q       E  E  E  E  E  E  E  E   
-----------------------------|--------------------------|
-----------------------------|--------------------------|
-----------------------------|-----9--------------------|
-----10--------10--10--10----|-----9--------------------|
--8---8--8--8---8---8---8----|--7--7--------5--3--2-----|
-----------------------------|--------0--0-----------3--|


  PM                                >                 
  E  E  E  E   Q     E  E     E  E  Q    E  E  E  E   
---------------------------|-------------------------|
---------------------------|-------------------------|
--------5--7~--L~----5-----|-----9--9----7--5--------|
-----7--5--7~--L~----5--7--|-----9--9----7--5--------|
--0--7------------------7--|--0----------------------|
---------------------------|-------------------3--5--|


     >  PM >                    >  PM >     >  >  >   
  E  E  E  E  Q    E   E     E  E  E  E  E  E  E  E   
--------------------------|--------------------------|
--------------------------|--------------------------|
-----2--------2-----------|-----2--------2-----------|
-----2--------2-----------|-----2--------2-----------|
--0--0--0--0--0--------0--|--0--0--0--0--0--7--6--7--|
-------------------3b-----|--------------------------|


        PM >                       PM >                                    
  E  E  E  E  E  E  E  E     E  E  E  E  E  E  E  E      W                 
--------------------------|--------------------------|--------------------|
--------------------------|--------------------------|--------------------|
-----7--------7-----------|-----7--------7-----------|---8----------------|
-----7--------7-----------|-----7--------7-----------|--10----------------|
--5--5--5--5--5--0--3--5--|--5--5--5--5--5--7--6--7--|---8----------------|
--------------------------|--------------------------|--------------------|


  W                   W                   W                   W                 
-------------------|-------------------|-------------------|-------------------|
-------------------|-------------------|-------------------|-------------------|
--7----------------|--2----------------|--L----------------|-------------------|
--9----------------|--2----------------|--L----------------|--3----------------|
--7----------------|--0----------------|--L----------------|--3----------------|
-------------------|-------------------|-------------------|--1----------------|


                        |--3-|       |--3-|        
  H.           Q        Q    E  Q    Q    E  Q     
---------------------|----------------------------|
---------------------|----------------------------|
---------------------|--2----2-------2----2-------|
--2------------------|--2----2-------2----2-------|
--2------------------|--0----0-------0----0-------|
--0------------3b----|----------------------------|


       |--3--|  |--3--|  |--3--|                                               
  Q    E  E  E  E  E  E  E  E  E     Q    H.              Q    H        E  E   
----------------------------------|--------------------|----------------------||
----------------------------------|--------------------|----------------------||
--2-------------------------------|--------------------|----------------------||
--2----7--5-----------------------|-------3------------|-------2--------------||
--0----------7--6--5--3-----------|-------3------------|-------2--------------||
-------------------------5--3--0--|-------1------------|-------0--------3--4--||


  Outro                                                   
  PM PM PM PM PM PM PM PM    PM PM PM PM PM           
  E  E  E  E  E  E  E  E     E  E  E  E  E  E  E  E   
--------------------------|--------------------------|
--------------------------|--------------------------|
--------------------------|--------------------------|
--------------------------|--------------------------|
--------------------------|--------------------------|
--5--5--5--5--5--5--5--5--|--5--5--5--5--5--2--3--4--|


  PM PM PM PM PM PM PM PM                             
  E  E  E  E  E  E  E  E     E  E  E  E  E  E  E  E   
--------------------------|--------------------------|
--------------------------|--------------------------|
--------------------------|--------------5-----------|
--------------------------|--------5--7--5--7--5-----|
--------------------------|-----7--5--7-----7--5--7--|
--5--5--5--5--5--5--5--5--|--5--7-----------------7--|


  PM PM PM PM PM PM PM PM    PM PM PM                 
  E  E  E  E  E  E  E  E     E  E  E  E  E  E  E  E   
--------------------------|--------------------------|
--------------------------|--------------------------|
--------------------------|--------------------------|
--------------------------|--------------------------|
--------------------------|--------------5--3--------|
--5--5--5--5--5--5--5--5--|--5--5--5--5--------0--3--|


  PM PM PM PM PM PM                >                   PM PM PM PM PM PM PM PM  
  E  E  E  E  E  E  E  E     E  E  Q    E  E  E  E     E  E  E  E  E  E  E  E   
--------------------------|-------------------------|--------------------------|
--------------------------|-------------------------|--------------------------|
--------------------------|-----9--9----7--5--------|--------------------------|
--------------------------|-----9--9----7--5--------|--------------------------|
--------------------3-----|-------------------------|--------------------------|
--5--5--5--5--5--5-----5--|--5----------------3--5--|--5--5--5--5--5--5--5--5--|


  PM PM PM PM PM             PM PM PM PM PM PM PM PM  
  E  E  E  E  E  E  E  E     E  E  E  E  E  E  E  E   
--------------------------|--------------------------|
--------------------------|--------------------------|
--------------------------|--------------------------|
--------------------------|--------------------------|
--------------------------|--------------------------|
--5--5--5--5--5--2--3--4--|--5--5--5--5--5--5--5--5--|


                             PM PM PM PM PM PM PM PM  
  E  E  E  E  E  E  E  E     E  E  E  E  E  E  E  E   
--------------------------|--------------------------|
--------------------------|--------------------------|
--------------5-----------|--------------------------|
--------5--7--5--7--5-----|--------------------------|
-----7--5--7-----7--5--7--|--------------------------|
--5--7-----------------7--|--5--5--5--5--5--5--5--5--|


  PM PM PM                   PM PM PM PM PM PM                >                 
  E  E  E  E  E  E  E  E     E  E  E  E  E  E  E  E     E  E  Q    E  E  E  E   
--------------------------|--------------------------|-------------------------|
--------------------------|--------------------------|-------------------------|
--------------------------|--------------------------|-----9--9----7--5--------|
--------------------------|--------------------------|-----9--9----7--5--------|
--------------5--3--------|--------------------3-----|-------------------------|
--5--5--5--5--------0--3--|--5--5--5--5--5--5-----5--|--5----------------3--5--|


  Fade out                                                   
  PM PM PM PM PM PM PM PM    PM PM PM PM PM           
  E  E  E  E  E  E  E  E     E  E  E  E  E  E  E  E   
--------------------------|--------------------------|
--------------------------|--------------------------|
--------------------------|--------------------------|
--------------------------|--------------------------|
--------------------------|--------------------------|
--5--5--5--5--5--5--5--5--|--5--5--5--5--5--2--3--4--|


  PM PM PM PM PM PM PM PM                             
  E  E  E  E  E  E  E  E     E  E  E  E  E  E  E  E   
--------------------------|--------------------------|
--------------------------|--------------------------|
--------------------------|--------------5-----------|
--------------------------|--------5--7--5--7--5-----|
--------------------------|-----7--5--7-----7--5--7--|
--5--5--5--5--5--5--5--5--|--5--7-----------------7--|


  PM PM PM PM PM PM PM PM    PM PM PM                 
  E  E  E  E  E  E  E  E     E  E  E  E  E  E  E  E   
--------------------------|--------------------------|
--------------------------|--------------------------|
--------------------------|--------------------------|
--------------------------|--------------------------|
--------------------------|--------------5--3--------|
--5--5--5--5--5--5--5--5--|--5--5--5--5--------0--3--|


  PM PM PM PM PM PM                >                   PM PM PM PM PM PM PM PM  
  E  E  E  E  E  E  E  E     E  E  Q    E  E  E  E     E  E  E  E  E  E  E  E   
--------------------------|-------------------------|--------------------------|
--------------------------|-------------------------|--------------------------|
--------------------------|-----9--9----7--5--------|--------------------------|
--------------------------|-----9--9----7--5--------|--------------------------|
--------------------3-----|-------------------------|--------------------------|
--5--5--5--5--5--5-----5--|--5----------------3--5--|--5--5--5--5--5--5--5--5--|


  PM PM PM PM PM             PM PM PM PM PM PM PM PM  
  E  E  E  E  E  E  E  E     E  E  E  E  E  E  E  E   
--------------------------|--------------------------|
--------------------------|--------------------------|
--------------------------|--------------------------|
--------------------------|--------------------------|
--------------------------|--------------------------|
--5--5--5--5--5--2--3--4--|--5--5--5--5--5--5--5--5--|


                             PM PM PM PM PM PM PM PM  
  E  E  E  E  E  E  E  E     E  E  E  E  E  E  E  E   
--------------------------|--------------------------|
--------------------------|--------------------------|
--------------5-----------|--------------------------|
--------5--7--5--7--5-----|--------------------------|
-----7--5--7-----7--5--7--|--------------------------|
--5--7-----------------7--|--5--5--5--5--5--5--5--5--|


  PM PM PM                   PM PM PM PM PM PM        
  E  E  E  E  E  E  E  E     E  E  E  E  E  E  E  E   
--------------------------|--------------------------|
--------------------------|--------------------------|
--------------------------|--------------------------|
--------------------------|--------------------------|
--------------5--3--------|--------------------3-----|
--5--5--5--5--------0--3--|--5--5--5--5--5--5-----5--|


        >                  
  E  E  Q    E  E  E  E    
-------------------------||
-------------------------||
-----9--9----7--5--------||
-----9--9----7--5--------||
-------------------------||
--5----------------3--5--||



Clean Guitar

   Riff #1
     H.           E  E     W                  
D||--0---------------0--|--L----------------|
A||--1------------L--1--|--L----------------|
F||--2------------L--2--|--L----------------|
C||--2------------L--2--|--L----------------|
G||---------------------|-------------------|
D||---------------------|-------------------|


  Riff #2
  H.           E  E     W                  
--0---------------2--|--L----------------|
--1------------L--1--|--L----------------|
--2------------L--2--|--L----------------|
--2------------L--2--|--L----------------|
---------------------|-------------------|
---------------------|-------------------|


  Riff #3
  E  E  E  E  H           E  E  E  E  H          
-----------------------|-----------------------|
-----------1--L--------|-----------0--L--------|
--------0--------------|--------0--------------|
-----2-----------------|-----0-----------------|
--3--------------------|-----------------------|
-----------------------|--3--------------------|



Lead Guitar

      Intro - m.17                                                         
      W                     W                   W                 
D||----------------------|-------------------|-------------------|
A||----------------------|-------------------|-------------------|
F||--16b~----------------|-------------------|-------------------|
C||----------------------|-------------------|-------------------|
G||----------------------|-------------------|-------------------|
D||----------------------|-------------------|-------------------|


  Q     S   S  S   S  H             E.    S  Q      E   E    S  E.   
--------------------------------|-----------------------------------|
--------------------------------|-----------------------------------|
-------19p-17--------19b--------|---Lp---17------------17~---L\-----|
--------------19p-17------------|-----------19~-----L---------------|
--------------------------------|-----------------------------------|
--------------------------------|-----------------------------------|


  E  E    Q     S  S S  S S  S S  S    Q       S  S  E  Q.      S S  
-------------------5-8p-5----5------|-------------------------------|
-----8b~--L~----L~--------8b---8p-5-|-------------------------------|
------------------------------------|--7br~----7p-5h-7--5~----------|
------------------------------------|---------------------------7-7-|
------------------------------------|-------------------------------|
------------------------------------|-------------------------------|


  >                    
  Q    Q    H          
---------------------|
---------------------|
---------------------|
---------------------|
--7------------------|
---------------------|


   Chorus - m.45                                                                     
   S   E.    E    E   Q     Q        S  S  E   Q     S  S  S  S  S   S E   
---------------------------------|------------------------------17h-20----|
---------------------------------|------------------17----20--------------|
-----------------17---Lb---------|---------------------17----17-----------|
--17h-19~----L~------------------|-----17-19---L--------------------------|
---------------------------------|--19------------------------------------|
---------------------------------|----------------------------------------|


  E   E    E   E    E    S  S  E    S  S   
-----20b---L---Lb--20~--17---------17-----|
---------------------------17-20b-----20b-|
------------------------------------------|
------------------------------------------|
------------------------------------------|
------------------------------------------|


                 |---3--|   |---3--|                      
   E      S   S  S   S  S   S  S   S  E       E   Q       
--------------------------------------------------------|
---Lpbr---Lp-17-----------------------------------------|
----------------19p-17----------------------------------|
-----------------------19p-17-------------12g14--14~----|
------------------------------19p-17--------------------|
-------------------------------------19\----------------|


  m.79                                                     
     PM PM PM     >                                      
  E  E  E  E  E   E  E    E     H         Q     E.  S    
-----------------------------|--------------------------|
-----------------------------|--------------------------|
--------------5b-------------|----------------------7br-|
--------5--7---------5--5g7--|--L~--------L\------------|
-----7------------7----------|--------------------------|
-----------------------------|--------------------------|


  Guitar Solo                                                                        
                >      >        >      >      >      >      >              
                                |------3------|      |------3------|       
  H         S S E    S E.       Q      Q      Q      Q      Q      Q       
-----------------------------|--------------------------------------------|
-----------------------------|--------------------------------------------|
--Lb--------L---7pb----7pb---|--7pb----7pb----7pb----7pb----7pb----7b~----|
-----------------------------|--------------------------------------------|
-----------------------------|--------------------------------------------|
-----------------------------|--------------------------------------------|


  Q     S  S  E   E  S  S E   E     E  S  S  Q       S S S  S S  S S  S  
---------------------------------|---------------------5-8p-5----5------|
---------------------------------|-----x-(x)-8br~----L--------8b---8p-5-|
--5~----------------------5b-----|-----x-(x)----------------------------|
--------7p-5h-7~--L--5h-7-----7--|--------------------------------------|
---------------------------------|--------------------------------------|
---------------------------------|--------------------------------------|


                           chek                                                 
  E  E   S S S  S S  S S S S    S  S S    S  S S S S  S  S  S E  S  S E   S  S  
-----------5-8p-5----5-----------------|---------------------------------------|
-----8b--L--------8b---8-7-5-----------|---------------------------------------|
--------------------------------7b-8-7-|--7b-5---7-7p-5~--------------5b-------|
---------------------------------------|-------7---------7p-5-7--5h-7-----7p-5-|
---------------------------------------|---------------------------------------|
---------------------------------------|---------------------------------------|


  E   S  S Q     E   E   E   S  S  
----------------------------------|
----------------------------------|
----------------------------------|
--7~--5h-7------------------------|
-----------7\----7s--3~--L~--5p-3-|
----------------------------------|


    |-3|  |--3-| |-3-| |--3-| |--3--| |-3-|           
    E  S  S S  S E   S S  S S S  S  S S S S S  E   S  
-----------------------------------------------------|
---------------------5-8p-5---5h-8p-5----------------|
------------5h-7-Lb---------7---------7---5-7p-5~--L-|
-------5h-7-----------------------------7------------|
--5g7------------------------------------------------|
-----------------------------------------------------|


  E    E     S  E.     Q       E   S   S  
-----------------------------------------|
------20br---L-20br---20br-----L--17h-20-|
--5\-------------------------------------|
-----------------------------------------|
-----------------------------------------|
-----------------------------------------|

                                                
                                               W   W        
                            |--3--|                         
   E      S   T  T  S   S   S  S  S  S   S  S  S   E   E    
-----------------------------------------------------------|
---Lbr----Lb-17----17h-20p-17----17------------------------|
----------------19------------19----19p-17----17b--L---L\--|
-------------------------------------------19--------------|
-----------------------------------------------------------|
-----------------------------------------------------------|


                      >                              
   E    E     E   S   S  S   S  S   S  S   S  S   S  
--20b---Lbr---L--20p-17-20p-17-----17---------------|
-------------------------------20b----20p-17-----17-|
---------------------------------------------19b----|
----------------------------------------------------|
----------------------------------------------------|
----------------------------------------------------|


                                 W                                >  >  >  >   
                                                                     |--3--|   
   S   S  S   S  S   S  S  S     Q     Q        E  E   E  E   E   E  E  E  E   
---------------------------------------------|-----8b--L--L~--L~--8--7--8--5--|
--20p-17-----17-19---------------------------|--------------------------------|
---------19b----19p-17----19-17g19----19\----|--------------------------------|
-----------------------19--------------------|--------------------------------|
---------------------------------------------|--------------------------------|
---------------------------------------------|--------------------------------|


  >  >                                               
  |----3---|  |--3-|      |-3-|  |--3-|              
  E  E  S  S  S  S S S  S S S S  S S  S  S  T T E    
--7--8--7h-8p-7p-5---7p-5---5-----------------------|
-------------------8------8---8p-5----5h-8p-5---5\--|
-----------------------------------7b---------7-----|
----------------------------------------------------|
----------------------------------------------------|
----------------------------------------------------|


                  >                   W W        
  |--3--|  |-3-|  |--3-|                         
  S  S  S  S S S  S  S S  S  S S S  S S E   E    
------------------------------------------------|
------------------------------------------------|
--7p-5h-7p-5---5h-7p-5--------------------------|
-------------7---------7p-5h-7-x-5h-7-5-Lb--L/--|
------------------------------------------------|
------------------------------------------------|


                                     shift trill                             
                                                                    >        
               |---3--|  |---3---|   |-------3-------|   |---3---|           
  E.    T  T   S   S  S  S   S   S   S           S   S   S   S   S  E   E    
----------12h-15p-12----12h-15p-12S-13h---------17p-13/-15h-19p-15-19--19b--|
-------13------------13-----------------------------------------------------|
--5/------------------------------------------------------------------------|
----------------------------------------------------------------------------|
----------------------------------------------------------------------------|
----------------------------------------------------------------------------|


   H          E   E  Q     
---L~---------L~----------|
--------------------------|
--------------------------|
--------------------------|
--------------------------|
--------------------------|


  Chorus 3 - m.111                                        
  H        H            H.            E  E   
---------------------|----------------------|
-----------8b--------|--L~---------------5--|
---------------------|----------------------|
---------------------|----------------------|
---------------------|----------------------|
---------------------|----------------------|


     E   E   E   E   E   E   E  E        E   E   E   E    E    E   Q     
-----------------------------------|------------------------------------|
--8g13--13--12------------------5--|--8g13--13--12----------------------|
----------------14---L---L\--------|----------------14~---L~---L\-------|
-----------------------------------|------------------------------------|
-----------------------------------|------------------------------------|
-----------------------------------|------------------------------------|


  W                   W                       Q     E   E    Q      E   E    
-------------------|-------------------|------------------------------------|
-------------------|-------------------|--12g13----12-----------------------|
-------------------|-------------------|---------------14~---L~----14--13~--|
-------------------|-------------------|------------------------------------|
-------------------|-------------------|------------------------------------|
-------------------|-------------------|------------------------------------|


   Q     Q    H           Q     H          E     S   S  
-----------------------|-------------------------------|
-----------------------|-------------------------------|
---L~------------------|-------19b---------Lpb---Lp-17-|
-----------------------|-------------------------------|
-----------------------|-------------------------------|
-----------------------|-------------------------------|


   H          Q.         E         E   E   E   E   Q.       E   
----------------------------|----------------------------------|
----------------------------|--12g13--13--12-------------------|
--19b---------Lpb~----------|-----------------14---L~----------|
----------------------------|----------------------------------|
------------------------14--|------------------------------14--|
----------------------------|----------------------------------|


      E   E   E   E   E    E   Q      
------------------------------------|
--12g13--13--12---------------------|
-----------------14---L~---L\-------|
------------------------------------|
------------------------------------|
------------------------------------|


  Outro - m.142                                                              
               PM                                                  
  H        E   E   E   E     H         E  E  Q                     
--------------------------|-----------------------|-------|-------|
--------------------------|---------------5--L----|-------|-------|
--------------------------|---------------5--L----|-------|-------|
--------------------------|--7~--------L----------|-------|-------|
-----------------------0--|-----------------------|-------|-------|
--------------12--12\-----|-----------------------|-------|-------|


  H        Q     E   E      Q.      S  S S S  E    E   E     
-------------------------|----------------------------------|
---------------------8b--|--L~------8p-5---5h-8b~--L~--8b~--|
-------------------------|---------------7------------------|
----------------12\------|----------------------------------|
----------------12\------|----------------------------------|
-------------------------|----------------------------------|


  E   E  Q    H           H        Q    E     E    
-----------------------|--------------------------|
--L\-------------------|--------------------------|
-----------------------|-------------------9g14\--|
------x----------------|--------------------------|
------x----------------|--------------------------|
-----------------------|--------------------------|


               W            PH    PH    PH    PH   
   E       E   E      E     E     E     E     E    
--------------------------------------------------|
--------------------------------------------------|
---L\---------------------------------------------|
--------------------------------------------------|
-------11g12--11--14g17\--<>5~--<>3~--------------|
--------------------------------------<>3~--<>5~--|


    W         PH    PH      W                                   
    Q    E    E     Q       E   E     S S E  E  E  E  E  E  E   
-----------------------------------|---------------------------|
-----------------------------------|---------------------------|
-----------------------------------|---------------------------|
------------<>7~--<>L~----<>7p--5--|---------5-----------------|
-----------------------------------|--7-5-7-----5--7--3--5--3--|
--<>5------------------------------|---------------------------|


  S  S S  S H.             
--------------------------|
--------------------------|
--------------------------|
--2p-0------7~------------|
-------3p-0---------------|
--------------------------|


  |--3--|  |--3--|  |--3--|  |--3--| |----3---| |--3--| |--3-|  
  S  S  S  S  S  S  S  S  S  S  S  S Q     S  S S  S  S S S  S  
---------------------------------------------------------------|
--8p-5h-8p-5h-8p-5h-8p-5h-8p-5h-8p-5-8b----Lp-5----------------|
------------------------------------------------8p-7p-5---5h-7-|
--------------------------------------------------------7------|
---------------------------------------------------------------|
---------------------------------------------------------------|


        |---3---|         |---3--|               
  S  S  S   S   S  S  S   S   S  S  Q     Q      
-----------------------------------------21b----|
------------------------------------------------|
-------17h-21p-17----17h-20p-17-----------------|
----19------------19------------19--L-----------|
------------------------------------------------|
------------------------------------------------|


   Q     E    E    S  S  S   S  E     E   
---L-----Lb--20~---L-17-----17-------17--|
------------------------20b----20b~------|
-----------------------------------------|
-----------------------------------------|
-----------------------------------------|
-----------------------------------------|


   S   S  E    S   S   S  S   S  S  S  S  S   S   S   S  
--20p-17------------------------------------------------|
---------20b--20p-17h-20-20p-17----17-------------------|
--------------------------------19----19-17p-16h-17p-16-|
--------------------------------------------------------|
--------------------------------------------------------|
--------------------------------------------------------|


                 |--3--|   |---3--|  |---3--|  |---3---|          
   S   S  S   S  S  S  S   S  S   S  S   S  S  S   S   S S  E.    
----------------------15p-12--------15p-12----12h-15p-12---15b---|
------12-----------12--------13p-12--------13--------------------|
--14b----14p-12-14-----------------------------------------------|
-----------------------------------------------------------------|
-----------------------------------------------------------------|
-----------------------------------------------------------------|


   E    E     E   E    Q.      S   S  
---L--(15)b---L----------------------|
-------15b----L--15~---L-------------|
------------------------------14p-12-|
-------------------------------------|
-------------------------------------|
-------------------------------------|


   S   S  E    Q      S  S  S   S   S      S  S  S  
---------------------------------------------------|
---------13b--13~----------------------------------|
--14p-12-------------14-12-14b--Lb--Lb-12g14-12----|
------------------------------------------------14-|
---------------------------------------------------|
---------------------------------------------------|


   S   S  E    E    S   S E  S  S  S  S S S    E   E   Q.     E   E   S  S  
--------------------------------------------|------------------------------|
---------13b--13~------------8p-5h-8p-5---5-|------------------------------|
--12h-14-----------14p-12---------------8---|--5b--5b--L------5b--5b--Lb---|
--------------------------7-----------------|------------------------------|
--------------------------------------------|------------------------------|
--------------------------------------------|------------------------------|


  E  E  E   E   E  S  S  E   S S    E  E    H         E.   S   
---------------------------------|----------------------------|
---------------------------------|--------------------8b---Lb-|
--5--7--7b--7~--L----------------|----------------------------|
-------------------7p-5h-7p--5---|----------------------------|
-------------------------------7-|--7--7s--15\----------------|
---------------------------------|----------------------------|


  E    S  S S  S E  S  S S  S S  S S S    E    E  H.              
---------------------------------------|------------------------||
--Lb~-----5----5-7--8p-5----5----------|------------------------||
-------7b---7b-----------7b---7p-5---7-|--5--7g5--5~------------||
-----------------------------------7---|------------------------||
---------------------------------------|------------------------||
---------------------------------------|------------------------||




Duration Legend
---------------
W - whole
H - half
Q - quarter
E - 8th
S - 16th
T - 32nd
X - 64th
. - note dotted
|-n-|  - n-tuplets


Tablature Legend
----------------
L - tied note
x - dead note
g - grace note
> - accentuded note
h - hammer on
p - pull off
b - bend
br - bendRelease
pb - preBend
pbr - preBendRelease
brb - bendReleaseBend
S - shift slide
s - legato slide
/ -  slide into from below or out of upwards
\ -  slide into from above or out of downwards
~ - vibrato
W - wide vibrato


Get my other tabs for Guitar Pro, Powertab, guitar/bass text and chords at
http://profile.ultimate-guitar.com/TexasFury/contributions/
Tap to rate this tab
 
# A B C D E F G H I J K L M N O P Q R S T U V W X Y Z