Song name
# A B C D E F G H I J K L M N O P Q R S T U V W X Y Z

Royal Republic - Presidents Daughter tab

Intro / Chorus
e|-----------------------------------------------------------|
B|-----------------------------------------------------------|
G|-----------------------------------------------------------|
D|------------------------------------------------------6----|
A|---1---2---3------------------1---2---3---------------6----|
D|--------------1---3---1---3---------------1---3---1---6----|


e|-----------------------------------------------------------|
B|-----------------------------------------------------------|
G|-----------------------------------------------------------|
D|------------------------------1---1-------------------6----|
A|---1---2---3--------------------------3---3---2---1---6----|
D|--------------1---3---1---3---------------------------6----|


Verse

e|-----------------------------------------------------------|
B|-----------------------------------------------------------|
G|---------6--6------------------6--6------------------------|
D|---3--3--6--6--6--6------3--3--6--6--6--6------------------|
A|---3--3--4--4--6--6------3--3--4--4--6--6------------------|
D|---3--3--------6--6------3--3--------6--6------------------|



just repeat this through entire verse.


Bridge/Stick

e|-----------------------------------------------------------|
B|-----------------------------------------------------------|
G|-----------------------------------------------------------|
D|-----------------------------------------------------------|X2
A|---------------------------------------------4--4----------| 
D|---6--8--8----6--8--8----6--8--8----6--8--8--------8--8----|


e|---------------------------------------------------------------------|
B|---------------------------------------------------------------------|
G|---------------------------------------------------------------------|
D|---------------------------------------------------------------------|X2
A|------------------------------------------------------6--6-----------|
D|---8--10--10----8--10--10----8--10--10----8--10--10---------10--10---|


play this then go back to the verse thingy.

Tap to rate this tab
# A B C D E F G H I J K L M N O P Q R S T U V W X Y Z