Song name
# A B C D E F G H I J K L M N O P Q R S T U V W X Y Z

Royal Republic - Underwear tab

Intro:

G --------8-----|
D --8-----8-8x--|
A --8-24x-6-----|
E --6-----------|

Verse 1
G --------------11-11--8-8--|
D --8-8--11-11--11-11--8-8--|
A --8-8--11-11--9--9---6-6--|
E --6-6--9--9---------------| 2x

G -----------------------------11-11--11-11-11-8-8--8-8-8-|
D --8-8--8-8-8-11-11--11-11-11-11-11--11-11-11-8-8--8-8-8-|
A --8-8--8-8-8-11-11--11-11-11-9--9---9--9--9--6-6--6-6-6-|
E --6-6--6-6-6-9--9---9--9--9-----------------------------| 2x

Chorus
G ---------11-----8-----6---------|
D --8------11-8x--8-8x--6-8x-6----|
A --8-24x--9------6-----4----6----|
E --6------------------------4----|

G --------8-----|
D --8-----8-8x--|
A --8-24x-6-----|
E --6-----------|

Verse 2
G --------------11-11--8-8--|
D --8-8--11-11--11-11--8-8--|
A --8-8--11-11--9--9---6-6--|
E --6-6--9--9---------------| 2x

G -----------------------------11-11--11-11-11-8-8--8-8-8-|
D --8-8--8-8-8-11-11--11-11-11-11-11--11-11-11-8-8--8-8-8-|
A --8-8--8-8-8-11-11--11-11-11-9--9---9--9--9--6-6--6-6-6-|
E --6-6--6-6-6-9--9---9--9--9-----------------------------| 2x

Chorus
G ---------11-----8------------11-----8-----6---------|
D --8------11-8x--8-8x--8------11-8x--8-8x--6-8x-6----|
A --8-24x--9------6-----8-24x--9------6-----4----6----|
E --6-------------------6------------------------4----|

Break:
G --------8-----|
D --8-----8-8x--|
A --8-24x-6-----|
E --6-----------| 4x

End
G ---------11-----8------------11-----8-----6----------|
D --8------11-8x--8-8x--8------11-8x--8-8x--6-8x-6--8--|
A --8-24x--9------6-----8-24x--9------6-----4----6--8--|
E --6-------------------6------------------------4--6--|
Tap to rate this tab
# A B C D E F G H I J K L M N O P Q R S T U V W X Y Z