Song name
# A B C D E F G H I J K L M N O P Q R S T U V W X Y Z

Royal Republic - Underwear tab

-------------------------------------------------------------------------------
                             Underwear - Royal Republic
-------------------------------------------------------------------------------
Tabbed by: PeterPun

First Tab here ^^

Tuning: 
half-step down


INTRO:
eb|-----------------|---------------|----------------|------------------|
Bb|-----------------|---------------|----------------|------------------|
Gb|---------------2-|4-4-4-4-4-2----|4-4-4-4-4-2-----|------------------| 
Db|---------0-2-4---|------------4-0|------------4-0-|-2-2-2-4-2-0------| x2
Ab|-2-2-2-2---------|---------------|----------------|-------------2-0--|
Eb|-----------------|---------------|----------------|------------------|


VERSE I:
eb|----|----|----|----|
Bb|----|----|----|----|
Gb|-44-|-77-|----|----|  x2
Db|-44-|-77-|-55-|-22-|
Ab|-22-|-55-|-55-|-22-|
Eb|----|----|-33-|-00-|
      
       
::INTRO::


Verse II:
eb|----------|---------|---------|---------|----------|---------|---------|---------|
Bb|----------|---------|---------|---------|----------|---------|---------|---------|
Gb|-44----44-|-77---77-|---------|---------|-44----44-|-77---77-|---------|---------|    
Db|-44----44-|-77---77-|-55---55-|-22---22-|-44----44-|-77---77-|-55------|---------|
Ab|-22----22-|-55---55-|-55---55-|-22---22-|-22----22-|-55---55-|-55------|---------|
Eb|----------|---------|-33---33-|-00---00-|----------|---------|-33------|---------|


Chorus:
eb|-------|-------|-------|-------|
Bb|-------|-------|-------|-------|
Gb|-4     |-7     |-------|-------|
Db|-4 x32 |-7 x8  |-5     |-2     |
Ab|-2     |-5     |-5 x8  |-2 x10 |
Eb|-------|-------|-3     |-0     |

::INTRO::

::VERSE I & II::

EXTENDED-CHORUS:
eb|-------|-------|-------|-------|-------|-------|-------|
Bb|-------|-------|-------|-------|-------|-------|-------|
Gb|-4     |-7     |-------|-4     |-7     |-------|-------|
Db|-4 x32 |-7 x8  |-5     |-4 x32 |-7 x8  |-5     |-2     |
Ab|-2     |-5     |-5 x8  |-2     |-5     |-5 x8  |-2 x10 |
Eb|-------|-------|-3     |-------|-------|-3     |-0     |


::INTRO::

::INTRO together with this:

eb|-------------------|----------------------|-----------------------|------------------|
Bb|----------------10-|12-12-12-12-12-10-----|-12-12-12-12-12-10-----|------------------|
Gb|------------9-11---|-----------------11---|------------------11---|-9-9-9-11-9-------|
Db|-9-9-9-9-12--------|-------------------12-|--------------------12-|------------12-9-7| x2
Ab|-------------------|----------------------|-----------------------|------------------|
Eb|-------------------|----------------------|-----------------------|------------------|


::SILENCE::


::CHROUS::


ENDING:
eb|--------------|
Bb|--------------|
Gb|-------9--7---|
Db|-9--7--9--7---|
Ab|-9--7--7--5---|
Eb|-7--5---------|


Tap to rate this tab
# A B C D E F G H I J K L M N O P Q R S T U V W X Y Z