Song name
# A B C D E F G H I J K L M N O P Q R S T U V W X Y Z

Royal Republic - Walking Down The Line tab

#INTRO/MAIN RIFF

Guitar 1:
E|-------------------------------------------------|
B|-------------------------------------------------|
G|-----------7-7-7-7-----------9-9-9-9-------------|
D|--9-9-9-9--7-7-7-7--7-7-7-7--9-9-9-9-------------|
A|--9-9-9-9--5-5-5-5--7-7-7-7--7-7-7-7-------------|
E|--7-7-7-7-----------5-5-5-5----------------------|

Guitar 2:
E|-------------------------------------------------|
B|--7-7-7-7--7-7-7-7--5-5-5-5--9-9-9-9-------------|
G|--8-8-8-8--7-7-7-7--6-6-6-6--9-9-9-9-------------|
D|--9-9-9-9--7-7-7-7--7-7-7-7--9-9-9-9-------------|
A|--9-9-9-9--5-5-5-5--7-7-7-7--7-7-7-7-------------|
E|--7-7-7-7-----------5-5-5-5----------------------|

#PRE-CHORUS

Guitar 1:
E|-------------------------------------------------|
B|-------------------------------------------------|
G|-------------------------------------------------|
D|-9--9--9--9--9--9--9--9--7--7--7--7--7--7--7--7--|
A|-9--9--9--9--9--9--9--9--7--7--7--7--7--7--7--7--|
E|-7--7--7--7--7--7--7--7--5--5--5--5--5--5--5--5--|
             x8                       x8

Guitar 2:
E|-------------------------------------------------|
B|-7--7--7--7--7--7--7--7--5--5--5--5--5--5--5--5--|
G|-8--8--8--8--8--8--8--8--6--6--6--6--6--6--6--6--|
D|-9--9--9--9--9--9--9--9--7--7--7--7--7--7--7--7--|
A|-9--9--9--9--9--9--9--9--7--7--7--7--7--7--7--7--|
E|-7--7--7--7--7--7--7--7--5--5--5--5--5--5--5--5--|
             x8                       x8

#CHORUS

Both Guitars:                           4th time:
E|--------------------------|----|---------------------------|
B|--------------------------|----|---------------------------|
G|--7h9-7h9-----7h9-7h9-----|----|-7h9-7h9-----7h9-7h9--9-~--|
D|--7h9-7h9--9--7h9-7h9--9--|-x3-|-7h9-7h9--9--7h9-7h9--9-~--|
A|-----------9-----------9--|----|----------9-----------7-~--|
E|-----------7-----------7--|----|----------7----------------|

MAIN RIFF
PRE-CHORUS
CHORUS
Then play Chorus but like this:

Guitar 1:                         
E|---------------------------------------|
B|---------------------------------------|
G|--7h9-7h9-----7h9-7h9------------------|
D|--7h9-7h9--9--7h9-7h9--9--x-x-x-x------|
A|-----------9-----------9--x-x-x-x------|
E|-----------7-----------7--x-x-x-x------|

Guitar 2:                         
E|---------------------------------------|
B|--7h9-7h9-----7h9-7h9------------------|
G|--7h9-7h9-----7h9-7h9------------------|
D|--7h9-7h9--9--7h9-7h9--9--x-x-x-x------|
A|-----------9-----------9--x-x-x-x------|
E|-----------7-----------7--x-x-x-x------|

#BREAKDOWN

Guitar 2 (no distortion:

E|-------------------------------------------------|
B|-------------------------------------------------|
G|-------------------------------------------------|
D|-------------------------------------------------|
A|------------5-5-5-5-----------7-7-7-7------------|
E|---7-7-7-7-----------5-5-5-5---------------------|
 PM: . . . .  . . . .  . . . .  . . . .

End with Chorus, mute after last note:
                     
E|------------------------------|
B|------------------------------|
G|--7h9-7h9-----7h9-7h9---------|
D|--7h9-7h9--9--7h9-7h9--9.-----|
A|-----------9-----------9.-----|
E|-----------7-----------7.-----|
Tap to rate this tab
# A B C D E F G H I J K L M N O P Q R S T U V W X Y Z