Song name
# A B C D E F G H I J K L M N O P Q R S T U V W X Y Z

Royal Republic - I Must Be Out Of My Mind tab

#Intro

e|-------------------------------------------|
B|-------------------------------------------|
G|---------------7-7----7-9-7----------------|
D|--9-9----7-9-7-7-7----7-9-7-9-9------------|
A|--9-9----7-9-7-5-5----5-7-5-9-9------------|
E|--7-7----5-7-5--------------7-7------------|

#Pre-Chorus

Guitar 1:
e|-------------------------------------------|
B|-------------------------------------------| x2
G|--4~------7-2--4~-------7-9----------------|
D|--4~------7-2--4~-------7-9----------------|
A|--2~------5-0--2~-------5-7----------------|
E|-------------------------------------------|
Guitar 2:
e|-------------------------------------------|
B|-------------------------------------------|\
G|-------------------------------------------| \
D|-4------------------------7----2-----------|  \
A|-22-22222-22222-22222--22-5-55-0-00--------|   \
E|-------------------------------------------|    \
                                                    x2
e|-------------------------------------------|    /
B|-------------------------------------------|   /
G|-------------------------------------------|  /
D|-4------------------------7----9-----------| /
A|-22-22222-22222-22222--22-5-55-7-77--------|/
E|-------------------------------------------|

#Chorus

e|----------------------|-4th-time-end-with:--|
B|----------------------|---------------------|
G|------------7----9----|---------------------|
D|-5-----7----7-x8-9-x8-|--5----7-------------|
A|-5-x8--7-x8-5----7----|--5-x8-7-x1----------|
E|-3-----5--------------|--3----5-------------|

#Intro riff (variation)


e|-------------------------------------------|
B|-------------------------------------------|
G|------------------7-7-x-x-x-7-9-7----------|
D|--9-9-x-x-x-7-9-7-7-7-x-x-x-7-9-7-9-9------|
A|--9-9-x-x-x-7-9-7-5-5-x-x-x-5-7-5-9-9------|
E|--7-7-x-x-x-5-7-5-----------------7-7------|

#Pre-Chorus
#Chorus which ends in:

e|-------------------------------------------|
B|-------------------------------------------|
G|------------------7-7-7-7-7-7-9-7----------|
D|--9-9-9-9-9-7-9-7-7-7-7-7-7-7-9-7-9-9------|
A|--9-9-9-9-9-7-9-7-5-5-5-5-5-5-7-5-9-9------|
E|--7-7-7-7-7-5-7-5-----------------7-7------|

End with:

G|-7-7~---|
D|-7-7~---|
A|-5-5~---|
E|--------|
Tap to rate this tab
 
# A B C D E F G H I J K L M N O P Q R S T U V W X Y Z