Song name
# A B C D E F G H I J K L M N O P Q R S T U V W X Y Z

Royal Republic - Be My Baby tab

Standard Tuning

Verse
E|-------------------------|
B|-------------------------|
G|------------9-9-9-11-----|
D|-11----11---9-9-9-11-11--|
A|-11----11---7-7-7-9--11--|
E|-9-----9-------------9---|

Chorus:
E|----------------------------------|
B|----------------------------------|
G|-9-9-9-11-11-11-9-9-9-------------|
D|-9-9-9-11-11-11-9-9-9-11-11-11-11-| x3
A|-7-7-7-9--9--9--7-7-7-11-11-11-11-|
E|----------------------9--9--9--9--|

4th Time:
E|-----------------------------|
B|-----------------------------|
G|-9-9-9-11-11-11-9-9-9-11-----|
D|-9-9-9-11-11-11-9-9-9-11-11--|
A|-7-7-7-9--9--9--7-7-7-9--11--|
E|-------------------------9---|

Solo:
E|-------------------------------------------------------------------|
B|-------------------------------------------------------------------|
G|----9-11^-11-9-11-9-11-11-11-9-11^----9-11^-11-9-11-9--9-9-9-11----|
D|-11--------------------------------11---------------------------11-|
A|-------------------------------------------------------------------|
E|-------------------------------------------------------------------|

After Second Chorus: "If you tie my tie..."
E|--------------------------------|
B|--------------------------------|
G|--------------------------------|
D|-7-777-777-777-774-444-44-xxxxx-|
A|-7-777-777-777-774-444-44-xxxxx-|
E|-5-555-555-555-552-222-22-xxxxx-|
                            \   /
                          Very fast

And that's all you need =)
Tap to rate this tab
# A B C D E F G H I J K L M N O P Q R S T U V W X Y Z