Song name
# A B C D E F G H I J K L M N O P Q R S T U V W X Y Z

Royal Republic - Let Your Hair Down tab

Let Your Hair Down from Royal Republic, on their new album 'Save The Nation'
Tabbed by BCmojo

0:20
e|-------------------------------------------------------|
B|-11-11-11.---------9--------------11.----11--9---------|
G|-11-11-11.---------9--8.----4--8--11.----11--9--8.-----|
D|-11-11-11.---------9--9.----5--9--11.----11--9--9.-----| x2
A|-9--9--9-.---------7--9.----5--9--9-.----9---7--9.-----|
E|----------------------7.----7--7----------------7.-----|

0:49
e|----------------------------------|
B|-11.------------------------------|
G|-11.-----8.-----------------------|
D|-11.-----9.---x---x---x---x-------|
A|-9-.-----9.---x---x---x---x-------|
E|---------7.---x---x---x---x-------|
                   ^ On snaredrum

Then the main riff starts at 0:57 with a rapid-picking-slide as intro:
e|----------------|
B|----------------|
G|----------------|
D|----------------|
A|--12//////2-----|
E|----------------|

e|-------------------------------------------------------|
B|-11-11-11.---------9--------------11.----11--9---------|
G|-11-11-11.---------9--8.----4--8--11.----11--9--8.-----|
D|-11-11-11.---------9--9.----5--9--11.----11--9--9.-----| x2
A|-9--9--9-.---------7--9.----5--9--9-.----9---7--9.-----|
E|----------------------7.----7--7----------------7.-----|

Solo Riff 1:28
e|--------------------------------------------------|
B|--------------------------------------------------|
G|----------------------10--------------------------|
D|--11-11-9-11--9(10)11----11-9---------------------|
A|------------------^-------------------------------|
E|------------------Optional------------------------|

1:50 play Main riff + solo riff.

Hope you enjoyed, more to follow soon
Tap to rate this tab
 
# A B C D E F G H I J K L M N O P Q R S T U V W X Y Z