Song name
# A B C D E F G H I J K L M N O P Q R S T U V W X Y Z

Royal Republic - You Aint Nobody Till Somebody Hates You tab

And yet another RR tab from Save The Nation!
This is my favorite song on the album!
ENJOY!

Bass Intro:
G|----------------------------------------------------------------|
D|----------------------------------------------------------------|
A|----------------------------------------------------------------|
E|--33-333-333-333-333-333-333-333-388-888-866-666-633-333-333----|

Guitar 1 (heavy effects):
e|----------------------------------------------------------|
B|----------------------------------------------------------|
G|----14------------------10-9~~----9-------7---------------|
D|------12-------------10-------------10------8----7~~~-----| x1
A|-10------10~~------8-------------------10-----8-----------|
E|----------------------------------------------------------|

Guitar 1:
e|-----3--------------------------------------|
B|-----3--------------------------------------|
G|-----0---upstroke-G--(a-lot)----------------|
D|-----0--------------------------------------|
A|-----2--------------------------------------|
E|-----3--------------------------------------|

Guitar 1 (heavy effects):
e|----------------------------------------------------------|
B|----------------------------------------------------------|
G|----14------------------10-9~~----9-------7---------------|
D|------12-------------10-------------10------8----7~~~-----| x2
A|-10------10~~------8-------------------10-----8-----------|
E|----------------------------------------------------------|

Guitar 2:
e|-------------------------------------------------------------------|
B|-------------------------------------------------------------------|
G|-------------------------------------------------------------------| repeat
D|-------------------------------------------------------------------|
A|--55-555-555-555-555-555-555-555-51010-101010-1088-888-855-555-555-|
E|--33-333-333-333-333-333-333-333-38-8--8-8-8--8-66-666-633-333-333-|
PM  .. ... ... ... ... ... ... ... .. .  . . .  . .. ... ... ... ...

Enter heavier part with:

Guitar 1:
e|--------------|
B|--------------|
G|--------------|
D|--b7-b7-b7-b7-|
A|--------------|
E|--------------|
Guitar2:
e|--------------|
B|--------------|
G|---x-x---x-x--|
D|---x-x---x-x--|
A|---x-x---x-x--|
E|---x-x---x-x--|

Heavier part Guitar1 + Guitar2
e|------------------------------------------------------|
B|------------------------------------------------------|
G|------------------------------------------------------|
D|---------------(elevens,-not-zeros)-------------------|
A|--88888888-11111111-7777--5555555555555555------------|
E|--66666666-9-9-9-9--5555--3333333333333333------------|   \
                                                               x2
e|------------------------------------------------------|   /
B|------------------------------------------------------|
G|------------------------------------------------------|
D|---------------(elevens,-not-zeros)-----------x-x-x-x-|
A|--88888888-11111111-7777--555-555-555-555-555-x-x-x-x-|
E|--66666666-9-9-9-9--5555--333-333-333-333-333-x-x-x-x-|

Heavier!! both guitars

e|------------------------------------------------------|
B|------------------------------------------------------|
G|--------------------------------5b6--------5b6--------|
D|--88888888-11111111-7777----5----------5--------------| 
A|--88888888-11111111-7777------------------------------|
E|--66666666-9-9-9-9--5555--33-33------33-33------------|

e|------------------------------------------------------|
B|------------------------------------------------------|
G|--------------------9999-------5b6--------5b6--------|
D|--88888888-11111111-9999----5----------5--------------| 
A|--88888888-11111111-7777------------------------------|
E|--66666666-9-9-9-9--------33-33------33-33------------|


e|------------------------------------------------------|
B|------------------------------------------------------|
G|--------------------------------7b8--------7b8--------|
D|--88888888-11111111-7777----5----------5--------------| 
A|--88888888-11111111-7777------------------------------|
E|--66666666-9-9-9-9--5555--33-33------33-33------------|

e|------------------------------------------------------|
B|------------------------------------------------------|
G|--------------------9999--------9b10--------9b10------|
D|--88888888-11111111-9999----5----------5--------------| 
A|--88888888-11111111-7777------------------------------|
E|--66666666-9-9-9-9--------33-33------33-33------------|

e|-----------------------------------------------------------------------|
B|-----------------------------------------------------------------------|
G|--------------------9b10------9b10--------9b10-------------------9b10~~|
D|----5----5----5------------5----------5-----------5----5----5----------| 
A|-----------------------------------------------------------------------|
E|--33-3-33-3-33-3-33------33-33-----33--33-------33-3-33-3-33-3-33------|

back to less heavy:

Guitar1 + Guitar2
e|------------------------------------------------------|
B|------------------------------------------------------|
G|------------------------------------------------------|
D|---------------(elevens,-not-zeros)-------------------|
A|--88888888-11111111-7777--5555555555555555------------|
E|--66666666-9-9-9-9--5555--3333333333333333------------|   \
                                                               x2
e|------------------------------------------------------|   /
B|------------------------------------------------------|
G|------------------------------------------------------|
D|---------------(elevens,-not-zeros)-----------x-x-x-x-|
A|--88888888-11111111-7777--555-555-555-555-555-x-x-x-x-|
E|--66666666-9-9-9-9--5555--333-333-333-333-333-x-x-x-x-|

AND HEAVY AGAIN!

e|------------------------------------------------------|   
B|------------------------------------------------------|
G|------------------------------------------------------|
D|--88888888-11111111-7777--555-555-555-555-555-x-x-x-x-| x4
A|--88888888-11111111-7777--555-555-555-555-555-x-x-x-x-|
E|--66666666-9-9-9-9--5555--333-333-333-333-333-x-x-x-x-|

e|------------------------------------------------------|
B|------------------------------------------------------|
G|--------------------------------9b10--------9b10------|
D|--88888888-11111111-7777----5----------5--------------| 
A|--88888888-11111111-7777------------------------------|
E|--66666666-9-9-9-9--5555--33-33------33-33------------|

e|-----------------------------------------------------------------------|
B|-----------------------------------------------------------------------|
G|--------------------9b10------9b10--------9b10-------------------9b10~~|
D|----5----5----5------------5----------5-----------5----5----5----------| 
A|-----------------------------------------------------------------------| x2
E|--33-3-33-3-33-3-33------33-33-----33--33-------33-3-33-3-33-3-33------|
Tap to rate this tab
 
# A B C D E F G H I J K L M N O P Q R S T U V W X Y Z