Song name
# A B C D E F G H I J K L M N O P Q R S T U V W X Y Z

Royal Republic - Save The Nation tab

hey this is my version of royal republics song save the nation.
it may not be 100% accurate but i think you can at least play along well. to check that 
it's correct, watch my cover of the song :)
http://www.youtube.com/watch?v=5ZT4A55fxuY&feature=plcp

i'll try to do tabs of the whole album, so... have fun :)
sven-wendt@hotmail.de

intro:

eb |---------------------------------|---------------------------------|
hb |-----4-------4-------4-------4---|-----4-------4-------4-------4---|
gb |---------------------------------|---------------------------------|
db |---------------------------------|---------------------------------|
ab |-3-3-----3-3-----3-3-----3-3-----|-3-3-----3-3-----3-3-----3-3-----|
eb |---------------------------------|---------------------------------|



verse:

eb |---------------------------------|---------------------------------|
hb |-----4-------4-------4-------4---|-----4-------4-------4-------4---|
gb |---------------------------------|---------------------------------|
db |---------------------------------|---------------------------------|
ab |-3-3-----3-3-----3-3-----3-3-----|-3-3-----3-3-----3-3-----3-3-----|
eb |---------------------------------|---------------------------------|  x2
   "it all comes down to this..."


eb |---------------------------------|---------------------------------|
hb |-----4-------4-------4-------4---|-----4-------4-------4-------4---|
gb |-5-5-----------------------------|---------------------------------|
db |-5-5-----------------------------|---------------------------------|
ab |-3-3-----3-3-----3-3-----3-3-----|-3-3-----3-3-----3-3-----3-3-----|
eb |---------------------------------|---------------------------------|
   "i'll make it right..."


eb |---------------------------------|---------------------------------|
hb |-----4-------4-------4-------4---|-----4-------4-------------------|
gb |---------------------------------|---------------------------------|
db |---------------------------------|---------------------------------|
ab |-3-3-----3-3-----3-3-----3-3-----|-3-3-----3-3---------------------|
eb |---------------------------------|---------------------------------|
   "i'll take you..."


eb |-------------------------------------------------|
hb |-----4-------4-------4-------4-------------------|
gb |-5-5-----5-5-----5-5-----5-5---------------------|
db |-5-5-----5-5-----5-5-----5-5---------------------|
ab |-3-3-----3-3-----3-3-----3-3-----------------4-4-|
eb |---------------------------------1-1-1-4-4-4-----|  x4
   "put your mark right by my name"



pre-chorus:

eb |---------------------------------|
hb |---------------------------------|
gb |---------------------------------|
db |---------------------------------|
ab |---------------------------------|
eb |---------------------------------|
   "no-one but me can save the nation"



chorus:

eb |---------------------------------|---------------------------------|
hb |---------------------------------|---------------------------------|
gb |-----------------8-8-8-8-8-8-8-8-|-----------------1010101010101010|
db |-6-6-6-6-6-6-6-6-8-8-8-8-8-8-8-8-|-8-8-8-8-8-8-8-8-1010101010101010|
ab |-6-6-6-6-6-6-6-6-6-6-6-6-6-6-6-6-|-8-8-8-8-8-8-8-8-8-8-8-8-8-8-8-8-|
eb |-4-4-4-4-4-4-4-4-----------------|-6-6-6-6-6-6-6-6-----------------|
   "yeah i get your"


eb |---------------------------------|
hb |---------------------------------|
gb |-5-5-5-5-5-5-5-5-5-5-5-5-5-5-5-5-|
db |-5-5-5-5-5-5-5-5-5-5-5-5-5-5-5-5-|
ab |-3-3-3-3-3-3-3-3-3-3-3-3-3-3-3-3-|
eb |---------------------------------|  x2
   "no-one but me can save the nation"



verse 2:

eb |---------------------------------|
hb |-----4-------4-------4-------4---|
gb |---------------------------------|
db |---------------------------------|
ab |-3-3-----3-3-----3-3-----3-3-----|
eb |---------------------------------|


eb |-------------------------------------------------|
hb |-----4-------4-------4-------4-------------------|
gb |-5-5-----5-5-----5-5-----5-5---------------------|
db |-5-5-----5-5-----5-5-----5-5---------------------|
ab |-3-3-----3-3-----3-3-----3-3-----------------4-4-|
eb |---------------------------------1-1-1-4-4-4-----|  x4
   "so put your mark right by my name"



chorus:

eb |---------------------------------|---------------------------------|
hb |---------------------------------|---------------------------------|
gb |-----------------8-8-8-8-8-8-8-8-|-----------------1010101010101010|
db |-6-6-6-6-6-6-6-6-8-8-8-8-8-8-8-8-|-8-8-8-8-8-8-8-8-1010101010101010|
ab |-6-6-6-6-6-6-6-6-6-6-6-6-6-6-6-6-|-8-8-8-8-8-8-8-8-8-8-8-8-8-8-8-8-|
eb |-4-4-4-4-4-4-4-4-----------------|-6-6-6-6-6-6-6-6-----------------|
   "yeah i get your"


eb |---------------------------------|
hb |---------------------------------|
gb |-5-5-5-5-5-5-5-5-5-5-5-5-5-5-5-5-|
db |-5-5-5-5-5-5-5-5-5-5-5-5-5-5-5-5-|
ab |-3-3-3-3-3-3-3-3-3-3-3-3-3-3-3-3-|
eb |---------------------------------|  x2
   "no-one but me can save the nation"


eb |---------------------------------|---------------------------------|
hb |---------------------------------|---------------------------------|
gb |-12121212121212128-8-8-8-8-8-8-8-|-12121212121212128-8-8-8-8-8-8-8-|
db |-12121212121212128-8-8-8-8-8-8-8-|-12121212121212128-8-8-8-8-8-8-8-|
ab |-10101010101010106-6-6-6-6-6-6-6-|-10101010101010106-6-6-6-6-6-6-6-|
eb |---------------------------------|---------------------------------|
   "a vote for me is a vote for you"


eb |---------------------------------|---------------------------------|
hb |---------------------------------|---------------------------------|
gb |-10101010101010101010101010101010|-10101010101010101010101010101010|
db |-10101010101010101010101010101010|-10101010101010101010101010101010|
ab |-8-8-8-8-8-8-8-8-8-8-8-8-8-8-8-8-|-8-8-8-8-8-8-8-8-8-8-8-8-8-8-8-8-|
eb |---------------------------------|---------------------------------|
   "spokesman of a generation"


eb |---------------------------------|---------------------------------|
hb |---------------------------------|---------------------------------|
gb |-8-------8-------8-------8-------|-8-------8-------8-------8-------|
db |-8-------8-------8-------8-------|-8-------8-------8-------8-------|
ab |-6-------6-------6-------6-------|-6-------6-------6-------6-------|
eb |---------------------------------|---------------------------------|
   "save     the     na-     tion"



bridge:

eb |---------------------------------|
hb |---------------------------------|
gb |-10 ~ ---------------------------|
db |-10 ~ ---------------------------|
ab |-8- ~ ---------------------------|
eb |---------------------------------|  hold 8 bars w/ feedback and noise



pre-chorus:

eb |---------------------------------|
hb |---------------------------------|
gb |---------------------------------|
db |---------------------------------|
ab |---------------------------------|
eb |---------------------------------|
   "no-one but me can save the nation"



chorus:

eb |---------------------------------|---------------------------------|
hb |---------------------------------|---------------------------------|
gb |-----------------8-8-8-8-8-8-8-8-|-----------------1010101010101010|
db |-6-6-6-6-6-6-6-6-8-8-8-8-8-8-8-8-|-8-8-8-8-8-8-8-8-1010101010101010|
ab |-6-6-6-6-6-6-6-6-6-6-6-6-6-6-6-6-|-8-8-8-8-8-8-8-8-8-8-8-8-8-8-8-8-|
eb |-4-4-4-4-4-4-4-4-----------------|-6-6-6-6-6-6-6-6-----------------|
   "yeah i get your"


eb |---------------------------------|
hb |---------------------------------|
gb |-5-5-5-5-5-5-5-5-5-5-5-5-5-5-5-5-|
db |-5-5-5-5-5-5-5-5-5-5-5-5-5-5-5-5-|
ab |-3-3-3-3-3-3-3-3-3-3-3-3-3-3-3-3-|
eb |---------------------------------|  x3
   "no-one but me can save the nation"


eb |---------------------------------|---------------------------------|
hb |---------------------------------|---------------------------------|
gb |-12121212121212128-8-8-8-8-8-8-8-|-12121212121212128-8-8-8-8-8-8-8-|
db |-12121212121212128-8-8-8-8-8-8-8-|-12121212121212128-8-8-8-8-8-8-8-|
ab |-10101010101010106-6-6-6-6-6-6-6-|-10101010101010106-6-6-6-6-6-6-6-|
eb |---------------------------------|---------------------------------|
   "a vote for me is a vote for you"


eb |---------------------------------|---------------------------------|
hb |---------------------------------|---------------------------------|
gb |-10101010101010101010101010101010|-10101010101010101010101010101010|
db |-10101010101010101010101010101010|-10101010101010101010101010101010|
ab |-8-8-8-8-8-8-8-8-8-8-8-8-8-8-8-8-|-8-8-8-8-8-8-8-8-8-8-8-8-8-8-8-8-|
eb |---------------------------------|---------------------------------|
   "spokesman of a generation"


eb |---------------------------------|---------------------------------|
hb |---------------------------------|---------------------------------|
gb |-8-------8-------8-------8-------|-8-------8-------8-------8-------|
db |-8-------8-------8-------8-------|-8-------8-------8-------8-------|
ab |-6-------6-------6-------6-------|-6-------6-------6-------6-------|
eb |---------------------------------|---------------------------------|  x2
   "save     the     na-     tion"


eb |---------------------------------|---------------------------------|
hb |---------------------------------|---------------------------------|
gb |---------------------------------|---------------------------------|
db |---------------------------------|---------------------------------|
ab |---------------------------------|-----------------------------4-4-|
eb |---------------------------------|-----------------1-1-1-4-4-4-----|


eb |----------------||
hb |-----4----------||
gb |----------------||
db |----------------||
ab |-3-3------------||
eb |----------------||
Tap to rate this tab
# A B C D E F G H I J K L M N O P Q R S T U V W X Y Z