Song name
# A B C D E F G H I J K L M N O P Q R S T U V W X Y Z

Royal Republic - Be My Baby tab

standard tune (E)

verse

---------------|
---------------|
6-6--999-11--6-|
6-6--999-11--6-|
4-4--777-9---4-|
---------------|

chorus

----------------------|
----------------------|
9-99-11-1111-999-6-66-|
9-99-11-1111-999-6-66-|
7-77-9 -9-9--777-4-44-|
----------------------|

riff

------------------------------------------------------------------------|
------------------------------------------------------------------------|
-----11^-11-9-11-9~---11-11-11-9-11^--------11^-11-9-11-9~---9-9-9-11---|
9-11-----------------------------------9-11--------------------------11-|
------------------------------------------------------------------------|
------------------------------------------------------------------------|

verse

---------------|
---------------|
6x6xx999x11xx6-
6x6xx999x11xx6-
4x4xx777x9-xx4-
---------------

chorus

----------------------|
----------------------|
9-99-11-1111-999-6-66-|
9-99-11-1111-999-6-66-|
7-77-9 -9-9--777-4-44-|
----------------------|

bridge

----------------------------|
----------------------------|
----------------------------|
777777777777-----4444444444-|
777777777777-----4444444444-|
555555555555-----2222222222-|

riff

-------------------------------------------------------------------------|
-------------------------------------------------------------------------|
-----11^-11-9-11-9~---11-11-11-9-11^--------11^-11-9-11-9~---9-9-9-11----|
9-11-----------------------------------9-11--------------------------11--| 2x
-------------------------------------------------------------------------|
-------------------------------------------------------------------------|

chorus

----------------------|
----------------------|
9-99-11-1111-999-6-66-|
9-99-11-1111-999-6-66-|
7-77-9 -9-9--777-4-44-|
----------------------|

riff

------------------------------------------------------------------------|
------------------------------------------------------------------------|
-----11^-11-9-11-9~---11-11-11-9-11^--------11^-11-9-11-9~---9-9-9-11---|
9-11-----------------------------------9-11--------------------------11-| 2x
------------------------------------------------------------------------|
------------------------------------------------------------------------|
Tap to rate this tab
 
# A B C D E F G H I J K L M N O P Q R S T U V W X Y Z