Song name
# A B C D E F G H I J K L M N O P Q R S T U V W X Y Z

Royal Republic - All Because Of You tab

Tuning: Standard

8 bar Bass and Drums intro.


Verse

|-------------------|
|---3-------5-------|
|---3-(x11)-5-(x11)-| x2 (8 Bars)
|---5-------5-------|
|-------------------|
|-------------------|

Pre Chorus

I play this part in upstrokes, as its easier to play offbeat notes this way.

|---6------8-------11------13------|
|---6------8-------11------13------|
|---7-(x8)-9--(x8)-12-(x8)-14-(x8)-|
|---8------10------13------15------|
|----------------------------------|
|----------------------------------|

Chorus

|--------------------------------------------|
|--------------------------------------------|
|--------------5-5--5-8-5---8-8-10-10--------| x2, second time end on the  
|---5--5-8-5---5-5--5-8-5---8-8-10-10-8-8-10-| G  Power Chord and let ring 
|---5--5-8-5---3-3--3-6-3---6-6-8--8--8-8-10-| into the next verse for 8 
|---3--3-6-3--------------------------6-6-8--| bars, or go straight back 
                                               into the verse riff.

Not much changes until the solo, this is the structure up to that point:

Verse Riff 8 Bars

Verse 2 and Pre Chorus

Chorus 2 (x4 instead of 2)

Solo

|---------------------------------------------------------------|
|-------------------3---------3-------------------6---6h8-6-8-8-|
|-----------3---3-5---5-3-5-5---3-3-----3---3-5-7---7-----------|
|---5-5-3-5---5---------------------3-5---5---------------------|
|---------------------------------------------------------------|
|---------------------------------------------------------------|

|-------------------------------------------------------------------------|
|----------------3-----------3-----------3-----6--------------------------|
|------3---3-5-3---5-3-5-3-5---5-3-5-3-5---5-3----------------------------|
|--3-5---5----------------------------------------5-----------------------|
|---------------------------------------------------(Let ring for 8 bars)-|
|-------------------------------------------------3-----------------------|

Then play the Pre Chorus riff, repeat the chorus and solo, and end on this:

|--------------------|
|--------------------|
|---8-8-10-10--------| 
|---8-8-10-10-8-8-10-|  
|---6-6-8--8--8-8-10-|  
|-------------6-6-8--| 


If you have any trouble with the tab, or spot any mistakes, please feel free to 
message me or comment and il help out/make changes.

Thanks!
Tap to rate this tab
# A B C D E F G H I J K L M N O P Q R S T U V W X Y Z