Song name
# A B C D E F G H I J K L M N O P Q R S T U V W X Y Z

Royal Tailor - Hold Me Together tab

"Hold Me Together" - Royal Tailor

Really simple, nothing fancy. 

Front Guitar:
e---------------------| 
b---2---3---7---5-----|
g---2---4---7---6-----| xRepeat
d---------------------|
a---------------------|
e-2--/3---7---5-------|

Rhythm Guitar: Chords D, G, Bm, A (plucked/strummed)
e---2---3---2---0-----| 
b---3---0---0---2-----|
g---------------------| xRepeat
d-0-----------2-------|
a---------2-----------|
e-----3---------------|

/music video
http://www.youtube.com/watch?v=vbpJ2FeeJgw

-Jonny
Tap to rate this tab
 
# A B C D E F G H I J K L M N O P Q R S T U V W X Y Z