Song name
# A B C D E F G H I J K L M N O P Q R S T U V W X Y Z

Royal Tailor - Hold Me Together tab

Hold Me Together (Easy Tab) Ė Royal Tailor
Standard Tuning: EADGBE
e---------------------|
b---2---3---7---5-----|
g---2---4---7---6-----|
d---------------------| (X4)
a---------------------|
e---2---3---7---5-----|

Verse One:

(Hello Mercy, I have been searching for you lately / I've been wounded and from what I 
hear You have the remedy)

e---7---2-------------|
b---79--24---3---5----|
g---79--24---4---6----|
d---7---2-------------| (X2)
a---7---2-------------|
e---7---2----3---5----|

Bridge One:
(They told me You would be for me so now I need to know  / Is this a love that can save 
me or say You will then don't / Will You stay with me when nobody is around  / If this 
is real, then tell now)

Chours:
e---------------------|
b---2---3---7---5-----|
g---2---4---7---6-----|
d---------------------|(X6)
a---------------------|
e---2---3---7---5-----|

(Can you hold me together / Can your love reach down this far / Can you hold me together 
/ Cause without you holding my heart, Iím falling apart)

e---------------------|
b---2---3---7---5-----|
g---2---4---7---6-----|
d---------------------|(X4)
a---------------------|
e---2---3---7---5-----|
Verse Two:

(Saying so long been lost been gone not sure what to pray / Itís not easy, but I know 
you hear me when I lose my way)


e---7---2-------------|
b---79--24---3---5----|
g---79--24---4---6----|
d---7---2-------------|(X2 Ė I made up my own strumming pattern
a---7---2-------------|
e---7---2----3---5----|

Bridge Two:

(I keep on floating not knowing, If there is more for me / Don't want to sink beneath 
waves of negativity / Iím going under Iím afraid that I might drown, If this is real I 
need you now)

Chorus
e---------------------|
b---2---3---7---5-----|
g---2---4---7---6-----|
d---------------------|(X6)
a---------------------|
e---2---3---7---5-----|

(Can you hold me together / Can your love reach down this far / Can you hold me together 
/ Cause without you holding my heart, Iím falling apart)

VAMP
e---------------------|
b---222-3333-777-5555-|
g---222-4444-777-6666-|
d---------------------| (X6)
a---------------------|
e---222-3333-777-5555-|

(I'm feeling stronger / With you by my side / And I realize You are my  / hope I need to know)

Chorus:

e---------------------|
b---2---3---7---5-----|
g---2---4---7---6-----|
d---------------------| (X Repeat til end of song)
a---------------------|
e---2---3---7---5-----|

(Can you hold me together / Can your love reach down this far / Can you hold me together 
/ Cause without you holding my heart, Iím falling apart)
Tap to rate this tab
# A B C D E F G H I J K L M N O P Q R S T U V W X Y Z