Song name
# A B C D E F G H I J K L M N O P Q R S T U V W X Y Z

Royksopp - Dooh Dooh tab

questions/comments go to gtfootball41@yahoo.com
standard tuning

Intro/Chorus:
e|-----------------------------|
B|-----------------------------|
G|-----0h1---------------------|
D|---------1-1--0h1p0----------|
A|-3-3----------------1---3-3--|
E|----------------------3------|

e|---------------------------------|
B|---------------------------------|
G|-------0h1-----------------------|
D|-----------1-1--3p1p0------------|
A|-1h3-3----------------1---0/3-3--|
E|------------------------3--------|

        ^repeat x2^

Interlude:
e|--------------------------------------------------|
B|--------------------------------------------------|
G|---0h1---------------------0h1--------------------|
D|-------1--0h1p0----------------1-1--3p1p0---------|
A|-3--------------1---3--1/3----------------1---1/3-|
E|------------------3-------------------------3-----|

using the beat of the song and keep repeating the chorus and interlude until it 
2:30 into the song)

Bridge:
e|-------------------------------------------|
B|-------------------------------------------|
G|-------------------------------3-----------|
D|-------------------------------------------|
A|-3/6-3-3-3-3/6-5-6-5-5-6-5-1-----3/6-3-3-3-|
E|-----------------------------3-------------|

repeat 4x then return to the Interlude one more time (end of song)
Tap to rate this tab
 
# A B C D E F G H I J K L M N O P Q R S T U V W X Y Z