Song name
# A B C D E F G H I J K L M N O P Q R S T U V W X Y Z

Royksopp - Silver Cruiser tab

Tabbed by: GuitarMan147 (fulmenthenastydragon...)

Basically, this is the tab of the seemingly main riff of the song - it
plays right at the start through to the end - and the chords are there as
well. The only change which might cause you a bit of trouble is probably
the Amaj7 (002120) to A (002220), which is quite quick, so you might like
to listen to the song for that timing.

Also, I have put two different ways of playing the tab here, just so you
can see whichever is more comfortable for you.

Hope it helps! :)




  F#m
e|-----------------------------------------------------|
B|-----------------------------------------------------|
G|--------2-----------2-----------2-----------2--------|
D|-----------------------------------------------------|
A|-----4-----4-----4-----4-----4-----4-----4-----4-----|
E|--2-----------2-----------2-----------2--------------|

  A
e|-----------------------------------------------------|
B|-----------------------------------------------------|
G|-----------------------------------------------------|
D|--------7-----------7-----------7-----------7--------|
A|-----7-----7-----7-----7-----7-----7-----7-----7-----|
E|--5-----------5-----------5-----------5--------------|

  Bm
e|-----------------------------------------------------|
B|-----------------------------------------------------|
G|-----------------------------------------------------|
D|--------9-----------9-----------9-----------9--------|
A|-----9-----9-----9-----9-----9-----9-----9-----9-----|
E|--7-----------7-----------7-----------7--------------|

  F#m                    Amaj7-A     Amaj7-A
e|-------------------------|----------------------------|
B|--------2-----------2----|-------2-----------2--------|
G|-----2-----2-----2-----2-|-1--2-----2--1--2-----2-----|
D|-------------------------|----------------------------|
A|-------------------------|----------------------------|
E|--2-----------2----------|----------------------------|


Or you could play:


  F#m
e|-----------------------------------------------------|
B|-----------------------------------------------------|
G|--------2-----------2-----------2-----------2--------|
D|-----------------------------------------------------|
A|-----4-----4-----4-----4-----4-----4-----4-----4-----|
E|--2-----------2-----------2-----------2--------------|

  A
e|-----------------------------------------------------|
B|-----------------------------------------------------|
G|--------2-----------2-----------2-----------2--------|
D|-----2-----2-----2-----2-----2-----2-----2-----2-----|
A|--0-----------0-----------0-----------0--------------|
E|-----------------------------------------------------|

  Bm
e|-----------------------------------------------------|
B|-----------------------------------------------------|
G|--------4-----------4-----------4-----------4--------|
D|-----4-----4-----4-----4-----4-----4-----4-----4-----|
A|--2-----------2-----------2-----------2--------------|
E|-----------------------------------------------------|

  F#m                    Amaj7-A     Amaj7-A
e|-------------------------|----------------------------|
B|--------2-----------2----|-------2-----------2--------|
G|-----2-----2-----2-----2-|-1--2-----2--1--2-----2-----|
D|-------------------------|----------------------------|
A|-------------------------|----------------------------|
E|--2-----------2----------|----------------------------|
Tap to rate this tab
# A B C D E F G H I J K L M N O P Q R S T U V W X Y Z