Guitaretab - guitar tabs
Song name
# A B C D E F G H I J K L M N O P Q R S T U V W X Y Z

Royksopp - Only This Moment tab

RŲyksopp - Only This Moment
Album: The Understanding (2005)

Capo: 3

Chords

Am     x22100
G      320030
Dm7    xx0231
Em7/D  030030
Em7    033030

My second tab... took me alot of time... but it was worth the ride!
Beautiful song about the feelings between a man and a woman.
It might sound strange to play an electro song on an acoustic guitar, but if you play it 
bit slower, i think it sounds really nice!
Enjoy and leave comments!

Riff played continually throughout the song:

e|-------3-0-------3-0---------3----------3--|
B|-1-0-------1-0--------0--------3--0-------3|
G|-----2---------2--------2-0---------2-0----|
D|-------------------------------------------|
A|-------------------------------------------|
E|-------------------------------------------|

e|-------3-1-------3-1-------------------|
B|-1---0-----1---0-----------------------|
G|---2---------2-------2--2-4--4-5--5--7-|
D|---------------------------------------|
A|---------------------------------------|
E|---------------------------------------|

The chords are Am, G, Dm, Em7/D, Em7 and are played continually throughout the song in 
way.

Am
Only this moment
Holds us together
G
Close to perfection
Nothing else out there
Dm
No one to guide us
Lost in our senses
Em7                      Em7/D
Deep down inside I know our love will die
[ Tab from: http://www.guitaretab.com/r/royksopp/88213.html ]
Only this moment
Holds us together
Lost in confusion
Feelings are out there
Scared of devotion
Doubting intentions
Deep down inside I know our love will die

Riff 2:
e|-----8-----7-----5-----3--------0---|
B|----------------------------------3-|
G|-7/9---9/7---7/5---5/4--------------|
D|-------------------------0h2-2------|
A|------------------------------------|
E|------------------------------------|

Stay or forever go
Play or youíll never know
What heaven decided
You canít deny itís
All youíve been waiting for

Stay or forever go
Play or youíll never know
Your spiritís devided
You will decide if Iím
All youíve been waiting for

Clouds in my head have been parted with grace
By the voices of an angel revealing her face
and her words they make sense īnī I do understand
Falling in love isnít part of a plan

Forces within me mix reason with lust, but
Iíll try to accept it and not make it worse
'cause I know I might loose it by taking the chance,
(But) love without pain isnít really romance

Only this moment
Holds us together
Close to perfection
Nothing else out there
Always beside her
Trusting my senses
Deep down inside I know love will survive

Only this moment
Holds us together
Close to perfection
Nothing else out there
Always beside her
Trusting my senses
Deep down inside I know love will survive

Riff 2 until fade
Related for Only This Moment tab