Guitaretab - guitar tabs
Song name
# A B C D E F G H I J K L M N O P Q R S T U V W X Y Z

Royksopp - Remind Me tab

-------------------------------------------------------------------------------
			     REMIND ME - Röyksopp
-------------------------------------------------------------------------------
Tabbed by: Ben Aitken
Email: ben.j.aitken@gmail.com

Tuning: Standard

Dm7    |x 5 7 5 6 5|
Am7    |5 7 5 5 5 5|
Ebmaj7 |x 6 8 7 8 6|
Bb     |6 8 8 7 6 6|

|Dm7  |Am7  |Ebmaj7 |Bb  |

|Dm7            |Am7 |Ebmaj7            |Bb                 |
It's only been a week,the rush of being home in rapid fading
|Dm7         |Am7 |Ebmaj7            |Bb                     |
Failing to recall what I was missing all that time in England
|Dm7              |Am7|Ebmaj7           |Bb                   |
Has sent me aimlessly,on foot or by the help of transportation
|Dm7                |Am7  |Ebmaj7            |Bb                  |
To knock on windows where a friend no longer lives, I had forgotten 
[ Tab from: http://www.guitaretab.com/r/royksopp/90256.html ]
-|-8-------------------------------------------------------------------------|-
-|----11--10--8--10----------8--8------8--10--11--10--8----------------------|-
-|---------------------------------10--------------------10------------------|-
-|---------------------------------------------------------------------------|-
-|---------------------------------------------------------------------------|-
-|---------------------------------------------------------------------------|-

-|----------------8----------------------------------------------------------|-
-|---------------------------------8--8------8--10--11--10--11--10-----------|-
-|-10--10--9--10-----9-------------------10----------------------------------|-
-|---------------------------------------------------------------------------|-
-|---------------------------------------------------------------------------|-
-|---------------------------------------------------------------------------|-

And everywhere I go, there's always something to remind me
Of another place and time where love that travelled far had found me

We stayed outside til two, waiting for the light to come back
But hid in talk I knew, until you asked what I was thinking
Until you asked what I was thinking

Brave men tell the truth, a wise man's tools are analogies and puzzles
A woman holds her tongue knowing silence will speak for her
Brave men tell the truth, a wise man's tools are analogies and puzzles,
A woman holds her tongue knowing silence will speak for her
Will speak for her

And everywhere I go, there's always something to remind me
Of another place and time where love that travelled far had found me



===============================================================================
Related for Remind Me tab
Remind Me chords by Royksopp