Song name
# A B C D E F G H I J K L M N O P Q R S T U V W X Y Z

Royksopp - Triumphant tab

Band: Royksopp
Song: Triumphant
Album: The Understanding (2005)

Tabbed by: Dolphin (dolphins_mail [at] mail.ru)

Ok, the tab is pretty simple - it took me about 10 minutes to figure out the chords. So, 
doubt that you will have any problems.

Here's the piano part that is being played through the whole song:

Chord I
|-8------8------8------8------|
|---10-----10-----10-----10---|
|------9------9------9------9-|
|--------7--------------------|
|-7---------------------------|
|-----------------------------|

Chord II
|-7-----7-----7-----7-----|
|---5-----5-----5-----5---|
|-----5-----5-----5-----5-|
|-------6-----------------|
|-7-----------------------|
|-------------------------|

Chord III-A                  Chord III-B
|-5-----5-----5-----5-----| |-5-----5-----5-----5-7-8-|
|---3-----3-----3-----3---| |---3-----3-----3---------|
|-----5-----5-----5-----5-| |-----5-----5-----5-------|
|-------5-----------------| |-------5-----------------|
|-5-----------------------| |-5-----------------------|
|-------------------------| |-------------------------|

Chord IV-A                   Chord IV-B
|-5-----5-----5-----5-----| |-5-----5-----5-----5-3-0-|
|---3-----3-----3-----3---| |---3-----3-----3---------|
|-----5-----5-----5-----5-| |-----5-----5-----5-------|
|-------3-----------------| |-------3-----------------|
|-3-----------------------| |-3-----------------------|
|-------------------------| |-------------------------|

The "Chord II" could be also played like this (easier to play, though it sounds lame):
|-7-----7-----7-----7-----|
|---5-----5-----5-----5---|
|-----7-----7-----7-----7-|
|-------6-----------------|
|-6-----------------------|
|-------------------------|

Ok, now, how you should play it (through the whole song):
Chord I, Chord II, Chord III-A, Chord IV-A, Chord I, Chord II, Chord III-B, Chord IV-B.

There are some other instruments (a lot of them, if you ask me), but it isn't really 
to figure them out.

For any questions or corrections - you are welcome to post a comment.
Tap to rate this tab
# A B C D E F G H I J K L M N O P Q R S T U V W X Y Z