Song name
# A B C D E F G H I J K L M N O P Q R S T U V W X Y Z

Rozi Plain - See My Boat tab

Rozi Plain website: http://roziplain.co.uk/
Tabbed by: Kadima
E-mail:johu2000-us@yahoo.de

Standard Tuning, Capo on 4th

guitar 1:

  |1---2---3---4---|1---2---3---4---|1---2---3---4---|1---2---3---4---|

 e|------7-------7-|------7-------6-|------6-------6-|------6-------0-| p
 B|--7-------7-----|--7-------7-----|--7-------7-----|--7-------7-----| a
 G|----------------|----------------|----------------|----------------| r
 D|0---0---0---0---|0---0---0---0---|0---0---0---0---|0---0---0---0---| t
 A|----------------|----------------|----------------|----------------|
 E|----------------|----------------|----------------|----------------| A

 e|------7-------7-|------7-------6-|------6-------6-|------6---------| p
 B|--7-------7-----|--7-------7-----|--7-------7-----|--7-------7---5-| a
 G|----------------|----------------|----------------|----------------| r
 D|0---0---0---0---|0---0---0---0---|0---0---0---0---|0---0---0---0---| t
 A|----------------|----------------|----------------|----------------| 
 E|----------------|----------------|----------------|----------------| A'

 e|--2-------2-----|--2-------2-----|--2-------2-----|--2-------2-----| p
 B|------5-------5-|------5-------5-|------5-------5-|------5-------5-| a
 G|----------------|----------------|----------------|----------------| r
 D|----------------|----------------|----------------|----------------| t
 A|0---0---0---0---|0---0---0---0---|----------------|----------------|
 E|----------------|----------------|3---3---3---3---|3---3---3---3---| B

  part A' = part A right in front of part B

  order: A-A-B|A-A-B-A|A-A-B-A|A-A-B-A|B-A-A-B-B-A-A|A-A-B-A|B-A-A-B-B|
  + end on 10th fret on e-string

guitar 2 (sometimes played simultaneously to part A):

 e|----------------|----------------|----------------|----------------|
 B|----------------|----------------|----------------|----------------|
 G|----------------|----------------|----------------|----------------|
 D|----------0---2-|--4---2---0-----|----------0---2-|--0-------------|
 A|--0---2---------|--------------2-|--0---2---------|------2---0-----|
 E|----------------|----------------|----------------|----------------|
Tap to rate this tab
 
# A B C D E F G H I J K L M N O P Q R S T U V W X Y Z