Song name
# A B C D E F G H I J K L M N O P Q R S T U V W X Y Z

Rozzi Crane - Ghost tab

Artist: Rozzi Crane
Song: Ghost
Tuning: Standard (Eadgbe)
BPM: 94
URL: http://www.rozzicrane.com/
One of my favorite singers

Chord names might be wrong

Watch the video for the rhythm and fills
http://www.artistdirect.com/video/rozzi-crane-performs-ghost/153318

Here's another version tuned down a half step and played a little different
http://www.usatoday.com/videos/life/music/2013/08/16/2664229/


Verse

          Gmin7           Gmin7                      Gmin7                   Gmin7
------------------------------------------------------------------------------------------------|
----------3-3-------------3-3------------------------3-3---------------------3-3----------------|
----------3-3-------------3-3------------------------3-3---------------------3-3----------------|
----------3-3-------------3-3------------------------3-3---------------------3-3----------------|
------------------------------------------------------------------------------------------------|
-1--2--3---------1--2--3--------------------1--2--3-----------------1--2--3---------------------|
       4 am it begins  felt some hands on my skin all this time I pretend You walk out your


           C                 D
--------------------------------------|
---------------4-4---------------3-3--|
---------------5-5---------------5-5--|
---------------5-5---------------4-4--|
------1--2--3----------3--4--5--------|
--------------------------------------|
 gone again    ooooh          oooh


Chorus

 Ebadd9                     BbMaj                 D7                     Gmin        FMaj
----------------------------6--------------------------------------------3-----------1----------|
-4--------------------------6---------------------3----------------------3-----------1----------|
-3--------------------------7---------------------5----------------------3-----------2----------|
-5--------------------------8---------------------4----------------------5-----------3----------|
-6--------------------------8---------------------5----------------------5-----------3----------|
----------------------------6--------------------------------------------3-----------1----------|
 I know theres nothin I can do I'm dancing with a shaddow wishing it was you and every 
night you


 Ebadd9                    BbMaj                    D7                     D7
---------------------------6--------------------------------------------------------------------|
-4-------------------------6------------------------3----------------------3--------------------|
-3-------------------------7------------------------5----------------------5--------------------|
-5-------------------------8------------------------4----------------------4--------------------|
-6-------------------------8------------------------5----------------------5--------------------|
---------------------------6--------------------------------------------------------------------|
 go is the only time we're close I'm dancing with a shadow sleeping with a ghost


 Ebadd9                     BbMaj                D7?             Gmin        FMaj
----------------------------6------------------------------------3-----------1------------------|
-4--------------------------6--------------------3---------------3-----------1------------------|
-3--------------------------7--------------------5---------------3-----------2------------------|
-5--------------------------8--------------------4---------------5-----------3------------------|
-6--------------------------8--------------------5---------------5-----------3------------------|
----------------------------6------------------------------------3-----------1------------------|
 haaa                   heeey I'm dancing with a shadow sleeping with a ghost


 Ebadd9                    BbMaj                 D7                     D7
---------------------------6--------------------------------------------------------------------|
-4-------------------------6---------------------3----------------------3-----------------------|
-3-------------------------7---------------------5----------------------5-----------------------|
-5-------------------------8---------------------4----------------------4-----------------------|
-6-------------------------8---------------------5----------------------5-----------------------|
---------------------------6--------------------------------------------------------------------|
 haaa                   heeey I'm dancing with a shadow sleeping with a ghost


Lyrics
----------------------------------------
Verse 1
4 am it begins
felt some hand up on my skin
all this time I pretend
you walk out your gone again

Verse 2
I play
your part
hold myself up in the dark
when you come back what do you do
you make me take care of you

Chorus
I know there's nothing I can do
I'm dancing with a shadow wishing it was you
and every night you go
is the only time we're close
I'm dancing with a shadow
sleeping with a ghost
I'm dancing with a shadow
sleeping with a ghost
I'm dancing with a shadow
sleeping with a ghost

Verse 3
hit me with that novacaine
you know how to  cover the pain
as soon as it gets to my head
you found your way back to my bed

Verse 4
miserable fantasy
haunted by our history
it don't matter how hard I try
our love is dead but a ghost won't die

Chorus

Bridge
that feel
your breathe
the chill of you hand
on my hand
let he
rise up rise up
when your gone

Chorus
Tap to rate this tab
# A B C D E F G H I J K L M N O P Q R S T U V W X Y Z