Song name
# A B C D E F G H I J K L M N O P Q R S T U V W X Y Z

Rpg - Clockin In tab

clockin in


RPG


TRANSCRIBED BY RUDY GUZMAN


guzman_84@hotmail.com

  gt1
e:------------------------------------------------------|
B:------------------------------------------------------|
G:------------------------------------------------------|
D:------------------9-9-9-x-----7-7-7-x-----5-5-5-5-5-5-|
A:-5-6-7--7-7--x-5--7-7-7-x--5--5-5-5-x--5--3-3-3-3-3-3-|
E:-3-4-5--5-5--x-3-----------3-----------3--------------|
  gt2
e:-----------------------------------------------------------------|
B:-----------------------------------------------------------------|
G:-----------------------------------------------------------------|
D:----------------7----5-7-7bf~-7-5--7-7-7-x--3-5-5bfp3--5-5-5-5-5-|
A:-5-6-7--7-7--x----7----------------5-5-5-x-------------3-3-3-3-3-|
E:-3-4-5--5-5--x---------------------------------------------------|

verse
e:-----------------------------------------------------|
B:-----------------------------------------------------|
G:-----------------------------------------------------|
D:----------------9--9-9-x-----7-7-7-x-----5-5-5-5-5-5-|
A:-5-6-7--7-7--5--7--7-7-x--5--5-5-5-x--5--3-3-3-3-3-3-|
E:-3-4-5--5-5--3------------3-----------3--------------|

   gt1                                                      x2
e:------------------------------------------------------------|
B:------------------------------------------------------------|
G:------------------------------------------------------------|
D:--------7-7-7-7-7--5--5-5-5-5-5--2--2-2-2-2-2--5--5-5-5-5-5-|
A:-5-6-7--7-7-7-7-7--5--5-5-5-5-5--2--2-2-2-2-2--5--5-5-5-5-5-|
E:-3-4-5--5-5-5-5-5--3--3-3-3-3-3--0--0-0-0-0-0--3--3-3-3-3-3-|
   gt2
e:------------------------------------------------------------|
B:------------------------------------------------------------|
G:------------------------------------------------------------|
D:-7-7-7-7-7-7--5-5-5-5-5-5-------------------5~~-7b-7bfp5----|
A:-0-0-0-0-0-0--0-0-0-0-0-0--7-7-7-7-7-7--5-7--------------7--|
E:---------------------------0-0-0-0-0-0----------------------|
   gt2
e:--------------------------------------------------------------|
B:--------------------------------------------------------------|
G:--------------------------------------------------------------|
D:-7-7-7-7-7-7--5-5-5-5-5-5-------------------5~~-5-5-5-5-5-5-7-|
A:-0-0-0-0-0-0--0-0-0-0-0-0--7-7-7-7-7-7--5-7-----------------0-|
E:---------------------------0-0-0-0-0-0------------------------|

  gt1
e:------------------------------------------------------|
B:------------------------------------------------------|
G:------------------------------------------------------|
D:------------------9-9-9-x-----7-7-7-x-----5-5-5-5-5-5-|
A:-5-6-7--7-7--x-5--7-7-7-x--5--5-5-5-x--5--3-3-3-3-3-3-|
E:-3-4-5--5-5--x-3-----------3-----------3--------------|
  gt2
e:-----------------------------------------------------------------|
B:-----------------------------------------------------------------|
G:-----------------------------------------------------------------|
D:----------------7----5-7-7bf~-7-5--7-7-7-x--3-5-5bfp3--5-5-5-5-5-|
A:-5-6-7--7-7--x----7----------------5-5-5-x-------------3-3-3-3-3-|
E:-3-4-5--5-5--x---------------------------------------------------|

verse
e:-----------------------------------------------------|
B:-----------------------------------------------------|
G:-----------------------------------------------------|
D:----------------9--9-9-x-----7-7-7-x-----5-5-5-5-5-5-|
A:-5-6-7--7-7--5--7--7-7-x--5--5-5-5-x--5--3-3-3-3-3-3-|
E:-3-4-5--5-5--3------------3-----------3--------------|

   gt1                                                        x7
e:------------------------------------------------------------|
B:------------------------------------------------------------|
G:------------------------------------------------------------|
D:--------7-7-7-7-7--5--5-5-5-5-5--2--2-2-2-2-2--5--5-5-5-5-5-|
A:-5-6-7--7-7-7-7-7--5--5-5-5-5-5--2--2-2-2-2-2--5--5-5-5-5-5-|
E:-3-4-5--5-5-5-5-5--3--3-3-3-3-3--0--0-0-0-0-0--3--3-3-3-3-3-|
   gt2
e:------------------------------------------------------------|
B:------------------------------------------------------------|
G:------------------------------------------------------------|
D:-7-7-7-7-7-7--5-5-5-5-5-5-------------------5~~-7b-7bfp5----|
A:-0-0-0-0-0-0--0-0-0-0-0-0--7-7-7-7-7-7--5-7--------------7--|
E:---------------------------0-0-0-0-0-0----------------------|

e:--------------------------------------------------------------------------------------|
B:--------------------------------------------------------------------------------------|
G:--------------------------------------------------------------------------------------|
D:-7\--7\---7-7-7-7-7-7-7-7-7-7-7-7-7-7-7-7-7-7-7-7-7-7-7-7-7-7-7-7-7-7-7-7-7-7-7-7-7-7-|
A:-7\--7\---7-7-7-7-7-7-7-7-7-7-7-7-7-7-7-7-7-7-7-7-7-7-7-7-7-7-7-7-7-7-7-7-7-7-7-7-7-7-|
E:-5\--5\---5-5-5-5-5-5-5-5-5-5-5-5-5-5-5-5-5-5-5-5-5-5-5-5-5-5-5-5-5-5-5-5-5-5-5-5-5-5-|

  gt1
e:------------------------------------------------------------|
B:------------------------------------------------------------|
G:------------------------------------------------------------|
D:-7\--7\---7---------------7-----------------7\--------------|
A:-7\--7\---7---------------7-----------------7\--------------|
E:-5\--5\---5---------------5-----------------5\--------------|

 gt2
e:------------------------------------------------------------|
B:------------------------------------------------------------|
G:------------------------------------------------------------|
D:----10-12--10--12-10-12b-12-10-12-10------------------------|
A:-12----------------------------------12~~-------------------|
E:------------------------------------------------------------|


http://www.myspace.com/rpgva                  myspace
http://www.rpgva.com/index.php?/site/media    website


hillo son mex

25/02/10
Tap to rate this tab
 
# A B C D E F G H I J K L M N O P Q R S T U V W X Y Z