Song name
# A B C D E F G H I J K L M N O P Q R S T U V W X Y Z

Rpm - Now Or Never tab

I dont really know if this is the exact way they play it,
but when i play it this is what i get. and it sounds pretty good.

This is only 1 guitar's parts, im sure the second guitar does some kinda harmony.

Ok so yer, erm... Drop D


Intro Part 1

e------------------------------------------------------|
B------------------------------------------------------|
G-6-6--6-6-6--6-6-6--6-6-6--6-4-4--4-4-4--4-4-4--4-4-4-|
D-0-0--0-0-0--0-0-0--0-0-0--0-0-0--0-0-0--0-0-0--0-0-0-|
A-5-5--5-5-5--5-5-5--5-5-5--5-5-5--5-5-5--5-5-5--5-5-5-|
E------------------------------------------------------|

e------------------------------------------------------------|
B------------------------------------------------------------|
G-4-6-6-6-6-6-6-6-6-6-6-6-6-4-4-4-4-4-4-4-4-4-4-4-4--6b7b6-6-|
D-0-0-0-0-0-0-0-0-0-0-0-0-0-0-0-0-0-0-0-0-0-0-0-0-0----------|
A-5-5-5-5-5-5-5-5-5-5-5-5-5-5-5-5-5-5-5-5-5-5-5-5-5----------|
E------------------------------------------------------------|


Intro Part 2

e------------------------------------------------------------|
B------------------------------------------------------------|
G-----------------------6b7b6--------------------------7-7-6-|
D-5--5-5--5-5-5--5-5-5---------5-9--9-9--9-9-9--9-9-9--------|
A-5--5-5--5-5-5--5-5-5---------5-9--9-9--9-9-9--9-9-9--5-5-4-|
E-5--5-5--5-5-5--5-5-5---------5-9--9-9--9-9-9--9-9-9--------|

e----------------------------------------------------------|
B----------------------------------------------------------|
G-----------------------6-6-7------------------------------|
D-7--7-7--7-7-7--7-7-7---------5--5-5--5-5-5--5-5-5--5-5-5-|
A-7--7-7--7-7-7--7-7-7--4-4-5--5--5-5--5-5-5--5-5-5--5-5-5-|
E-7--7-7--7-7-7--7-7-7---------5--5-5--5-5-5--5-5-5--5-5-5-|


Verse

e-----------------------------------------------------------|
B-----------------------------------------------------------|
G-------------------------------------------7-7-7-7-6-6-6-6-|
D-9--9--9-9-9-9-7--7--7-7-7-7-5--5--5-5-5-5-----------------|   x2
A-9--9--9-9-9-9-7--7--7-7-7-7-5--5--5-5-5-5-5-5-5-5-4-4-4-4-|
E-9--9--9-9-9-9-7--7--7-7-7-7-5--5--5-5-5-5-----------------|

e-----------------------------------------------------------|
B-----------------------------------------------------------|
G-------------------------------------------7-7-7-7-6-6-6-6-|
D---9---9-9-9-9-7--7--7-7-7-7-5--5--5-5-5-5-----------------|
A---9---9-9-9-9-7--7--7-7-7-7-5--5--5-5-5-5-5-5-5-5-4-4-4-4-|
E---9---9-9-9-9-7--7--7-7-7-7-5--5--5-5-5-5-----------------|
   [^]OFFBEAT

e-----------------------------------------------------------|
B-----------------------------------------------------------|
G-------------------------------------------7-7-7-7-6-6-6-6-|
D-9--9--9-9-9-9-7--7--7-7-7-7-5--5--5-5-5-5-----------------|
A-9--9--9-9-9-9-7--7--7-7-7-7-5--5--5-5-5-5-5-5-5-5-4-4-4-4-|
E-9--9--9-9-9-9-7--7--7-7-7-7-5--5--5-5-5-5-----------------|


Pre-Chorus 1

e-----------------------------------------------------------------|
B-----------------------------------------------------------------|
G---------------------------------------------------------------7-|
D-5-5-5-5-5-5-5-5-5-5-5-5-5-5-5-5-4-4-4-4-4-4-4-4-4-4-4-4-4-4p0-7-|
A-5-5-5-5-5-5-5-5-5-5-5-5-5-5-5-5-4-4-4-4-4-4-4-4-4-4-4-4-4-4p0-5-|
E-5-5-5-5-5-5-5-5-5-5-5-5-5-5-5-5-4-4-4-4-4-4-4-4-4-4-4-4-4-4p0---|
  ***************************PM**************************


Chorus

e--------------------------------------------------------------|
B-8--8-8--8-8-8--8-8-8--8-8-8----------------------------------|
G-7--7-7--7-7-7--7-7-7--7-7-7--7--7-7--7-7-7--7-7-7-9-9-1111---|
D-5--5-5--5-5-5--5-5-5--5-5-5--7--7-7--7-7-7--7-7-7-9-9-1111---|
A-5--5-5--5-5-5--5-5-5--5-5-5--5--5-5--5-5-5--5-5-5-7-7-9-9----|
E-5--5-5--5-5-5--5-5-5--5-5-5----------------------------------|
                                                                       x2
e------------------------------------------------------------------|
B-10-1010-101010-101010-101010-------------------------------------|
G-9--9-9--9-9-9--9-9-9--9-9-9--11111111b12b111111-9-9-9-9b10b9-9-9-|
D-7--7-7--7-7-7--7-7-7--7-7-7--9-9-9-9--9--9-9-9--7-7-7-7-7--7-7-7-|
A-7--7-7--7-7-7--7-7-7--7-7-7--9-9-9-9--9--9-9-9--7-7-7-7-7--7-7-7-|
E-7--7-7--7-7-7--7-7-7--7-7-7--9-9-9-9--9--9-9-9--7-7-7-7-7--7-7-7-|


Intro Part 2


Verse


Pre-Chorus 1


Chorus


Bridge

e-----------------------------------------------------------------|
B-----------------------------------------------------------------|
G-----------------------------------------------------------------|
D-9-------------------------------7-------------------------------|   x3
A-9-------------------------------7-------------------------------|
E-9-------------------------------7-------------------------------|

e-----------------------------------------------------------------|
B-----------------------------------------------------------------|
G-----------------------------------------------------------------|
D-9-9-9-9-9-9-9-9-5-5-5-5-5-5-5-5-7-7-7-7-7-7-7-7-7-7-7-7-7-7-7-7-|    x3
A-9-9-9-9-9-9-9-9-5-5-5-5-5-5-5-5-7-7-7-7-7-7-7-7-7-7-7-7-7-7-7-7-|
E-9-9-9-9-9-9-9-9-5-5-5-5-5-5-5-5-7-7-7-7-7-7-7-7-7-7-7-7-7-7-7-7-|


Pre-Chorus 2

e------------------------------------------------------------------|
B------------------------------------------------------------------|
G------------------------------------------------------------------|
D-5-5-5-5-5-5-5-5-5-5-5-5-5-5-5-5-4-4-4-4-4-4-4-4-4-4-4-4-4---4--4-|
A-5-5-5-5-5-5-5-5-5-5-5-5-5-5-5-5-4-4-4-4-4-4-4-4-4-4-4-4-4---4--4-|
E-5-5-5-5-5-5-5-5-5-5-5-5-5-5-5-5-4-4-4-4-4-4-4-4-4-4-4-4-4---4--4-|
  ***************************PM**************************    [^][^]OFFBEATS

e-----------------------------------------------------------------|
B-----------------------------------------------------------------|
G---------------------------------------------------------------7-|
D-5-5-5-5-5-5-5-5-5-5-5-5-5-5-5-5-4-4-4-4-4-4-4-4-4-4-4-4-4-4p0-7-|
A-5-5-5-5-5-5-5-5-5-5-5-5-5-5-5-5-4-4-4-4-4-4-4-4-4-4-4-4-4-4p0-5-|
E-5-5-5-5-5-5-5-5-5-5-5-5-5-5-5-5-4-4-4-4-4-4-4-4-4-4-4-4-4-4p0---|
  ***************************PM**************************


Chorus


Outro

e-----------------------------------------------------        e---|
B-----------------------------------------------------        B---|
G-----------------------------------------------------        G---|
D-9--9--9--9--5--5--5--5--9--9--9--9--5-5-5-5-2-2-2-2-   x2   D-9-|
A-9--9--9--9--5--5--5--5--9--9--9--9--5-5-5-5-2-2-2-2-        A-9-|
E-9--9--9--9--5--5--5--5--9--9--9--9--5-5-5-5-2-2-2-2-        E-9-|
Tap to rate this tab
# A B C D E F G H I J K L M N O P Q R S T U V W X Y Z