Rtz - Return To Zero tab

-------------------------------------------------------------------------------
			     Return To Zero - RTZ
-------------------------------------------------------------------------------
Tabbed by:Peter Hurton
Email: Peterhurton@rasbot.karoo.co.uk

Tuning:Standard

e|---------------------------------|---------------------------------|
B|---------------------------------|---------------------------------|
G|--------------7/-9---------9-----|--------------7/-9---------9-----|
D|--------------7/-9---------9-----|--------------7/-9---------9-----|
A|--------------5/-7---------7-----|--------------5/-7---------7-----|
E|0-0-0-3-0-0-5--------------------|0-0-0-3-0-0-5--------------------|

This Is Basically The Main Riff Of The Song ,Its Repeated Throughout 
the majority of the song And Its Very Fun To Play! 
Tap to rate this tab
 
# A B C D E F G H I J K L M N O P Q R S T U V W X Y Z