Song name
# A B C D E F G H I J K L M N O P Q R S T U V W X Y Z

Rtz - Rock The Night tab

-----------------------------------------------------------------------------
			  Rock the Night (Rhythm) Tab - RTZ
-----------------------------------------------------------------------------
Tabbed by:Peter Hurton
Email:Peterhurton@rasbot.karoo.co.uk

Tuning: Standard

Chorus/intro
E|------------------------|------------------------|
B|------------------------|------------------------|
G|--999~~~~~~9------------|------------------------| X2
D|--999~~~~~~9---7-9~~~~~~|-11\9-11~~~~~~11--9-7~~~|
A|--777~~~~~~7---7-9~~~~~~|-11\9-11~~~~~~11--9-7~~~|
E|---------------5-7~~~~~~|--9\7--9~~~~~~-9--7-5~~~|

End of chorus intro
E|------------------------|------------------------|
B|------------------------|------------------------|
G|--999~~~~~~~~~~~~~~~~~~~|~~~~~~~~~~~~~~~~~~~~~~~~|
D|--999~~~~~~~~~~~~~~~~~~~|~~~~~~~~~~~~~~~~~~~~~~~~|
A|--777~~~~~~~~~~~~~~~~~~~|~~~~~~~~~~~~~~~~~~~~~~~~|
E|------------------------|------------------------|
              (whammy This Note)

Verse
E|------------------------|------------------------|
B|------------------------|------------------------|
G|-9----------------------|------------------------|
D|-9-------7-7---9~~~~~~~\|------------------------|  X5
A|-7-------7-7---9~~~~~~~\|------------------------|
E|---------5-5---7~~~~~~~\|------------------------|

Pre-chorus
E|------------------------|------------------------|
B|------------------------|------------------------|
G|------------------------|------------------------|
D|-11~~~~~~~11------11----|-11~~~~~~~11------11----|
A|-11~~~~~~~11------11----|-11~~~~~~~11------11----|
E|--9~~~~~~~-9-------9----|--9~~~~~~~-9-------9----|

E|------------------------|------------------------|
B|------------------------|------------------------|
G|------------------------|------------------------|
D|-11~~~~~~~11-------9----|--7~~~~~~~~~~~~~~~~~~~~~|
A|-11~~~~~~~11-------9----|--7~~~~~~~~~~~~~~~~~~~~~|
E|--9~~~~~~~-9-------7----|--5~~~~~~~~~~~~~~~~~~~~~|

(Chorus)

(verse)

(Pre Chorus)

(chorus)

Solo Build up

Solo

Chorus out

Repeat these main parts of the song in all areas apart from solo And Solo build up
Thanks For Looking :)
Tap to rate this tab
 
# A B C D E F G H I J K L M N O P Q R S T U V W X Y Z