Guitaretab - guitar tabs
Song name
# A B C D E F G H I J K L M N O P Q R S T U V W X Y Z

Ru2 - Everything Sucks tab

E--------------------------------------------|
B----------6+--------~7--5-------------------|
G-----5-~7---~7-5-7+-~7--5--9--7+------------|
D--~7-----------------------9--7+------------|
A--------------------------------------------|
E--------------------------------------------|

E----------10--7-7----8-7--------------------|
B-----7-10---------10-----8--9---------------|(Bend Up and hold)
G-7-9----------------------------------------|
D--------------------------------------------|
A--------------------------------------------|
E--------------------------------------------|


E |-2h3---------------------------|-3-2-0-3-2-0-3-2-0-3-2-0----------|
B |-----2h3-----------------------|----------------------------------|
G |---------2h3-----3-------------|----------------------------------|
D |-------------2h3---2-----------|----------------------------------|
A |-------------------------------|----------------------------------|
E |-------------------------------|----------------------------------|

E |-5-3-0-5-3-0-5-3-0-5-3-0-------|-3-2-0----------------------------|
B |-------------------------------|-------3-2-0----------------------|
G |-------------------------------|-------------3-2-0----------------|
D |-------------------------------|-------------------2-1-0----------|
A |-------------------------------|----------------------------------|
E |-------------------------------|----------------------------------|
[ Tab from: http://www.guitaretab.com/r/ru2/128425.html ]
E |-------------------------------|-----------------------------12h15|
B |-------------------------------|------------------------12h15-----|
G |-------------------------------|------------------12-14-----------|
D |-------------------------------|------------12-14-----------------|
A |2-3-4-5-6-7-8-9-9-10-11--12----|------12-14-----------------------|
E |0-0-0-0-0-0-0-0-0--0--0---0----|12-15-----------------------------|

-----------------------------------------I don't know about this part yet--------------------------------------------------

E |12h15-15-12h15p12--------------|------------------------------------|
B |-----------------15-12---------|------------------------------------|
G |----------------------14-12----|------------------------------------|
D |---------------------------14-12------------------------------------|
A |-------------------------------|-14-12-------------2~~~~~~----------|
E |-------------------------------|-------15-12\\\---------------------|

E |-5-3-0-5-3-0-5-3-0-5-3-0-------|-3-2-0----------------------------|
B |-------------------------------|-------3-2-0----------------------|
G |-------------------------------|-------------3-2-0----------------|
D |-------------------------------|-------------------2-1-0----------|
A |-------------------------------|----------------------------------|
E |-------------------------------|----------------------------------|            ?


E |-------------------------------|-----------------------------12h15|
B |-------------------------------|------------------------12h15-----|
G |-------------------------------|------------------12-14-----------|
D |-------------------------------|------------12-14-----------------|
A |2-3-4-5-6-7-8-9-9-10-11--12----|------12-14-----------------------|
E |0-0-0-0-0-0-0-0-0--0--0---0----|12-15-----------------------------|
Related for Everything Sucks tab
Advertisement will be closed in 10 seconds