Song name
# A B C D E F G H I J K L M N O P Q R S T U V W X Y Z

Ru2 - My Girlfriend tab

Help us improve GuitareTab! Take a short survey!
-0---0-3---3-2--------2-0-0-0-0-0-0--3-3-3-3-3-3--2-2-2-2-2-2--0-0-0-0-0-0--3-3-3-3-3-3--2-2-2-2-2-2-|
-0---0-0---0-1------1---0-0-0-0-0-0--0-0-0-0-0-0--1-1-1-1-1-1--0-0-0-0-0-0--0-0-0-0-0-0--1-1-1-1-1-1-|
-0---0-0---0-2----2-----0-0-0-0-0-0--0-0-0-0-0-0--2-2-2-2-2-2--0-0-0-0-0-0--0-0-0-0-0-0--2-2-2-2-2-2-|
-3---3-0---0-0--0-------3-3-3-3-3-3--0-0-0-0-0-0--0-0-0-0-0-0--3-3-3-3-3-3--0-0-0-0-0-0--0-0-0-0-0-0-|
-2---2-2---2-------------2-2-2-2-2-2--2-2-2-2-2-2------------------2-2-2-2-2-2--2-2-2-2-2-2----------|
-0---0-3---3-------------0-0-0-0-0-0--3-3-3-3-3-3------------------0-0-0-0-0-0--3-3-3-3-3-3----------|

0-0-0-0-0-0--3-3-3-3-3-3--2-2-2-2-2-2--0-0-0-0-0-0--3-3-3-3-3-3--2-2-2-2-2-2-0-0-0--3-3-3--2-2---|
0-0-0-0-0-0--0-0-0-0-0-0--1-1-1-1-1-1--0-0-0-0-0-0--0-0-0-0-0-0--1-1-1-1-1-1-0-0-0--0-0-0--1-1---|
0-0-0-0-0-0--0-0-0-0-0-0--2-2-2-2-2-2--0-0-0-0-0-0--0-0-0-0-0-0--2-2-2-2-2-2-0-0-0--0-0-0--2-2---|
3-3-3-3-3-3--0-0-0-0-0-0--0-0-0-0-0-0--3-3-3-3-3-3--0-0-0-0-0-0--0-0-0-0-0-0-3-3-3--0-0-0--0-0---|
2-2-2-2-2-2--2-2-2-2-2-2------------------2-2-2-2-2-2--2-2-2-2-2-2------------------2-2-2--2-2-2-|
0-0-0-0-0-0--3-3-3-3-3-3------------------0-0-0-0-0-0--3-3-3-3-3-3------------------2-2-2--2-2-2-|

0-0-0--3-3-3--2-2--0-0-0-0-0-0--3-3-3-3-3-3--2-2-2-2-2-2--0-0-0-0-0-0--3-3-3-3-3-3--2-2-2-2-2-2-|
0-0-0--0-0-0--1-1--0-0-0-0-0-0--0-0-0-0-0-0--1-1-1-1-1-1--0-0-0-0-0-0--0-0-0-0-0-0--1-1-1-1-1-1-|
0-0-0--0-0-0--2-2--0-0-0-0-0-0--0-0-0-0-0-0--2-2-2-2-2-2--0-0-0-0-0-0--0-0-0-0-0-0--2-2-2-2-2-2-|
3-3-3--0-0-0--0-0--3-3-3-3-3-3--0-0-0-0-0-0--0-0-0-0-0-0--3-3-3-3-3-3--0-0-0-0-0-0--0-0-0-0-0-0-|
2-2-2--2-2-2--------2-2-2-2-2-2--2-2-2-2-2-2------------------2-2-2-2-2-2--2-2-2-2-2-2----------|
0-0-0--3-3-3--------0-0-0-0-0-0--3-3-3-3-3-3------------------0-0-0-0-0-0--3-3-3-3-3-3----------|

0-0-0--3-3-3--2-2--0-0-0--3-3-3--2-2-----|
0-0-0--0-0-0--1-1--0-0-0--0-0-0--1-1-----|
0-0-0--0-0-0--2-2--0-0-0--0-0-0--2-2-----|
3-3-3--0-0-0--0-0--3-3-3--0-0-0--0-0-----|
2-2-2--2-2-2--------2-2-2--2-2-2---------|
0-0-0--3-3-3--------0-0-0--3-3-3---------|
Related for My Girlfriend tab