Ru36 - Fuck Your Scene tab

This is how the song is truly played. AJ from the band is my guitar teacher,
so I know their songs. While this is my first tab, there will be more to
come. Any lines aren't designated measures either, I'm just trying to clean
up sections of stuff.

Tuning: Eb

Intro:
eb---------------------------------------------------------------------------|
Bb---------------------------------------------------------------------------|
Gb---------------------------------------------------------------------------|
Db---------------------------------------------------------------------------|
Ab-4-------------------------------------------------------------------------|
Eb-2-------------------------------------------------------------------------|

That's it. This is held for 4 measures.

Riff 1                               Riff 2
eb-----------------|----------------||------------------|--------------------|
Bb-----------------|----------------||------------------|--------------------|
Gb-----------------|----------------||------------------|--------------------|
Db-------------3333|4444------------||------------------|---------5---4------|
Ab-----44445555----|----555544440000||---------4--------|---------3---2------|
Eb-2222------------|----------------||-553-2-0-2--------|-553-2-0-3---2------|

On each pass, Riff 2 gets repeated twice. That's the "Fuck, your scene" part.

Verse
eb---------|---------|---------|---------|-----------------------------------|
Bb---------|---------|---------|---------|-----------------------------------|
Gb---------|---------|---------|---------|-----------------------------------|
Db-666-6-6-|-555-5-5-|-444-4-4-|-222-2-2-|-----------------555-555-555-555---|
Ab-444-4-4-|-333-3-3-|-222-2-2-|-000-0-0-|-444-444-444-444-333-333-333-333---|
Eb---------|---------|---------|---------|-222-222-222-222-------------------|

eb---------|---------|---------|---------|-----------------------------------|
Bb---------|---------|---------|---------|-----------------------------------|
Gb-666-6-6-|-555-5-5-|---------|---------|-----------------------------------|
Db-444-4-4-|-333-3-3-|-444-4-4-|-333-3-3-|-----------------555-555-555-555---|
Ab---------|---------|-555-5-5-|-444-4-4-|-444-444-444-444-333-333-333-333---|
Eb---------|---------|---------|---------|-222-222-222-222-------------------|

Solo
eb---------|---------|---------|---------|-----------------------------------|
Bb---------|---------|---------|---------|-----------------------------------|
Gb---------|---------|---------|---------|-----------------------------------|
Db---------|-----3---|-----4---|---------|---------555-555-555-555-----------|
Ab-----4-5-|-------4-|-------5-|-----4-5-|---------333-333-333-333-----------|
Eb-222-----|-222-----|-222-----|-222-----|-0-2-3-5---------------------------|


eb---------|---------|---------|---------|-----------------------------------|
Bb---------|---------|---------|---------|-----------------------------------|
Gb---------|---------|---------|---------|-----------------------------------|
Db---------|-----3---|-----4---|---------|---------555-555-555-555-----------|
Ab-----4-5-|-------4-|-------5-|-----4-5-|---------333-333-333-333-----------|
Eb-222-----|-222-----|-222-----|-222-----|-0-2-3-5---------------------------|

Those are the tabs. All you have to do now is thread what goes where, which
shouldn't be too hard with the lyrics.
Tap to rate this tab
 
# A B C D E F G H I J K L M N O P Q R S T U V W X Y Z