Song name
# A B C D E F G H I J K L M N O P Q R S T U V W X Y Z

Ru36 - Bra Tits tab

RU36- Bra Tits 
Tune down half step- Eb, Gb, Bb, Db, Ab, Eb
http://www.ru36.com/

Bass intro:
------------------------------------------------------------------|
------------------------------------------------------------------|
------------------------------------------------------------------| X's 2
-------------------------------------7-10-----5-3-----------------|
-3---3-3-----3-3-5--5-5-5-5-5-5-8-8-------7-7-----3---3-3-3-3-3---|
---------3-3----------------------------------------------------3-|

Come in with a pick slide on the G and D strings...

Intro/chorus:
----------------------------------------------------------|
----------------------------------------------------------| 
----------------------------------------------------------| X's 2
-5---------5--7--------------10------9--7--5--------------|
-3--3-3-5--3--5--5-5-5-5-5-5--8--8-8-7--5--3--3-3-3-3-3-3-|
--------3-------------------------------------------------|
    . .          . . . . . .     . .          . . . . . . 

--------------------------------------------------------------------------|
--------------------------------------------------------------------------|
------------9---------9----9--------------------9----9-10-12-0-9-0-5-0-9--|
-10-9-10-12---10---12---12------12---10-9-10-12---10----------------------|
-----------------------------10-------------------------------------------|
--------------------------------------------------------------------------|
 .  . .  .         .  . .  .         .  . .  .        (Slight PM)

----------------------------------------|
-12-13-10-13----13----13----------------|
-------------12----10----9-0-7-0-5-0-4~-|
----------------------------------------|
----------------------------------------|
----------------------------------------|                  
             (Slight pm)

Verse: 
-------------------------------------------------------------------|
-------------------------------------------------------------------|
-9-0-5-0-9-0-5-0-10-0-7-0-10-0-7-0-7-0-4-0-7-0-4-0-9-0-5-0-9-0-5-0-|
-------------------------------------------------------------------|
-------------------------------------------------------------------|
-------------------------------------------------------------------|
(Slight pm) 

-----------------------------------|
-----------------------------------|
-12-0-9-0-10-0-7-0-9-0-5-0-7-0-4-0-|
-----------------------------------|
-----------------------------------|
-----------------------------------|
(Slight pm)

Bridge: 
---------------------------------------|
---------------------------------------|
---------------------------------------|
-5---------5-------10------9--7--------|
-3---3-3-5-3--5~~~--8--8-8-7--5--3~~~--|
---------3-----------------------------|
     . .               . .

-------------------------------------------|
-------------------------------------------|
-------------------------------------------|
-5---------5-------10------9--7------------|
-3---3-3-5-3--5~~~--8--8-8-7--5--3~~///15--|
---------3---------------------------------|
     . .               . .

Pick slide on the G and D strings

Outro:
----------------------------------------------|
----------------------------------------------| 
----------------------------------------------|
-5---------5--7--------------10------9--7--5--|
-3--3-3-5--3--5--5-5-5-5-5-5--8--8-8-7--5--3--|
--------3-------------------------------------|
    . .          . . . . . .     . .
   
-----------------------------|
-----------------------------|
-----------------------------|
---------4-4-4-4-5---(9)~--5-|
-5-5-5-5-2-2-2-2-3----7~~--3-|
-3-3-3-3---------------------|
 . . . . . . . . 

PIRATECORE BITCHES!!! Ha
Tap to rate this tab
# A B C D E F G H I J K L M N O P Q R S T U V W X Y Z