Guitaretab - guitar tabs
Song name
# A B C D E F G H I J K L M N O P Q R S T U V W X Y Z

Rubberslime - Koma tab

                          Rubberslime - Koma


by: malle
band: rubberslime  (Leadguitar: Elf ; Rhythmguitar: Minne)
Album: rock'n'roll genossen
Titel: Koma


 Intro:

         G                E-moll
 ---------3------------------0-------------------|
 -----------3------------------0-----------------|
 ------------------------------------------------|
 ------------------------------------------------|  (3x, this riff plays the
 ---2-----------------2--------------------------|   rythmguitar)
 -3---3-------------0---0------------------------|

 (this riff is played at the third repetition of the intro riff )
 -----------------|
 ---3h5-3h5--3----|
 -----------------|
 -----------------|
 -----------------|
 -----------------|

 ------------------------------------------------------------|
 ---8-8-8--7-7-7---------------------------------------------|
 ----------------7-7---9-9-9-9--7-----7----------------------|
----------------------------------9--------------------------|
 ------------------------------------------------------------|
 ------------------------------------------------------------|

 -------------------------------------------------------------------------|
 --7h8-7----------------7h8--7----------------7h8-7------10---7-----------|
 ---------7-------7--9----------7---9----7-9---------7--------------------|
 -------------9-----------------------------------------------------------|
 -------------------------------------------------------------------------|
 -------------------------------------------------------------------------|


 D  C H A

 Verse 1:         G        E    (3x)  D   C H A (1x)


 Bridge:          G  F#  E             E  F#  G

                  G  F#  E             E  D   C


 Chorus:    G   E   +    ----------------------------------|       (3x)
                          --0--1---0-----------------------|
                          ---------------------------------|
                          ---------------------------------|
                          ---------------------------------|
                          ---------------------------------|

             D   C H A      (1x)


             the chorus is played two times


 Verse:            G        E    (3x)  D   C H A (1x)


                       the verse is played two tmies

 Bridge 1:  G  F#  E            E  F#  G

            G  F#  E            E  D   C

 Interlude:       G                E-moll

            ---------3------------------0-------------------|
            -----------3------------------0-----------------|
            ------------------------------------------------|
            ------------------------------------------------|
            ---2-----------------2--------------------------|
            -3---3-------------0---0------------------------|


 Solo:

[ Tab from: http://www.guitaretab.com/r/rubberslime/141345.html ]
 -----------------------------|
 -3h5---3-1-0-----------------|
 --------------2-0-----0-0h2--|
 -------------------2---------|
 -----------------------------|
 -----------------------------|


 -----------------------------------3-----5--3---------------|
 ---------1--------------1--3--3/5-----5--------5--3---------|
 --2-0-2-----2-0h2----2-------------------------------5------|
 ------------------------------------------------------------|
 ------------------------------------------------------------|
 ------------------------------------------------------------|


 --------------------8--------8----10-8---10b--8------8-------|
 ----------8----8h10----8h10----------------------10----------|
5--7-7/9------------------------------------------------------|
 -------------------------------------------------------------|
 -------------------------------------------------------------|
 -------------------------------------------------------------|


 ---5-5----5-5----5-5----5-5----5-5------------------------------------------|
 ---5-5----5-5----5-5----5-5----5-5--5h8p5-----------------------------------|
 7b-----7b-----7b-----7b-----7b------------7--5--7b---5--5--5--7-7br--5---5--|
 ------------------------------------------------------7---7------------7----|
 ----------------------------------------------------------------------------|
 ----------------------------------------------------------------------------|

 ------------------------8--------------------|
 --------------8---8-10--8--------------------|
 --5--7-7/9-----------------------------------|
 ---------------------------------------------|
 ---------------------------------------------|
 ---------------------------------------------|


 Bridge 2:

          A     H  C      (alle drei Akkorde ausklingen lassen)

          C  H         A (gedämpft)                G     F

          Diese bridge wird 1x gespielt


 Refrain 2:

              C         A + --0---1---0----------------|      (3x)
                            ---------------------------|
                            ---------------------------|
                            ---------------------------|
                            ---------------------------|
                            ---------------------------|


               G        F   (1x)

               dieser Refrain wird 4x gespielt


 Bridge:   (kleiner riff nach dem Refrain, Minne spielt dieselben akkorde wie im         
             letzten Refrain)


           --------------------------------------|
           --------------5--5h6--5---------------|
           ---5-5-5-5-5--------------------------|
           --------------------------------------|
           --------------------------------------|
           --------------------------------------|


            (3x)


            G             F
Related for Koma tab