Song name
# A B C D E F G H I J K L M N O P Q R S T U V W X Y Z

Rubberslime - Rock N Roll Plenum tab

Help us improve GuitareTab! Take a short survey!
  RubberSlime - Rock'n'Roll Plenum

Intro:

------------------------------------------------------------------|
------------------------------3---------------3-------------------|
---------------3-------5-----------------------------5------3-----|
-5---------5-5-----5-5----5-5-----5-------5-5----5-5----5-5-------|
-5--(7x)--------------------------5-(7x)--------------------------|
-3--------------------------------3-------------------------------|

------------3--3h6-3h6--3--3----------------------------------|
---------5--3--3h6-3h6--3--3----------------------------------|
---------5-----------------------------3h5p3--5b-5b--5p3------|
-5-----------------------------5-------3h5p3--5b-5b--5p3--5---|
-5-(7x)------------------------5-(7x)---------------------5---|
-3-----------------------------3------------------------------|

---------3h6--3h6--3h6--6-6----6p5p3--------------------------------|
---------3h6--3h6--3h6--3-3------------6p5p3------------------------|
-----------------------------------------------5p4p3------3---------|
-5----------------------------------------------------5-------------|
-5-(7x)-------------------------------------------------------------|
-3------------------------------------------------------------------|

---------------------------------------|
---------------------------------------|
--3--5p3--5b--5b--5p3-----3----5-------|
-----------------------5-------5-(3x)--|
-------------------------------3-------|
---------------------------------------|

Verse:

---------------------------------------------------|
---------------------------------------------------|
-----------------------------------------3--3--3---|
--5--------5---------5---------5---------3--3--3---|
--5-(7x)---5--(7x)---5--(7x)---5--(7x)---1--1--1---|
--3--------3---------3---------3-------------------|

---------------------------------------------------|
---------------------------------------------------|
-----------------------------------------5--5--5---|
--5--------5---------5---------5---------5--5--5---|
--5-(7x)---5--(7x)---5--(7x)---5--(7x)---3--3--3---|
--3--------3---------3---------3-------------------|


Refrain:
-----------------------------|
-----------------------------|
-3-3-3-3--5-5-5-5------------|    (4x)
-3-3-3-3--5-5-5-5--5-5-5-5---|
-1-1-1-1--3-3-3-3--5-5-5-5---|
-------------------3-3-3-3---|


-------------------------------|
-------------------------------|
-3-3-3-3-3---7--6--5--4--3--2--|
-3-3-3-3-3---7--6--5--4--3--2--|
-1-1-1-1-1---5--4--3--2--1--0--|
-------------------------------|


Bridge:
------------------------------------------------------------------|
------------------------------3---------------3-------------------|
---------------3-------5-----------------------------5------3-----|
-5---------5-5-----5-5----5-5-----5-------5-5----5-5----5-5-------|
-5--(7x)--------------------------5-(7x)--------------------------|
-3--------------------------------3-------------------------------|

------------3--3h6-3h6--3--3----------------------------------|
---------5--3--3h6-3h6--3--3----------------------------------|
---------5-----------------------------3h5p3--5b-5b--5p3------|
-5-----------------------------5-------3h5p3--5b-5b--5p3--5---|
-5-(7x)------------------------5-(7x)---------------------5---|
-3-----------------------------3------------------------------|

---------15h19--(3x)--19--19----------19p17p15-----------------------------|
---------15h19--------15--15--------------------19p17p15-------------------|
----------------------------------------------------------17p16p15------15-|
-5----------------------------5-------------------------------------17-----|
-5-(7x)-----------------------5-(7x)---------------------------------------|
-3----------------------------3--------------------------------------------|

-----------------------------------------------------|
-----------------------------------------------------|
---------15h17p15---17b--17p15 -------15----5--------|
-5--------------------------------17--------5--5-----|
-5-(7x)-------------------------------------3--5-----|
-3---------------------------------------------3-----|


Verse:
---------------------------------------------------|
---------------------------------------------------|
-----------------------------------------3--3--3---|
--5--------5---------5---------5---------3--3--3---|
--5-(7x)---5--(7x)---5--(7x)---5--(7x)---1--1--1---|
--3--------3---------3---------3-------------------|

---------------------------------------------------|
---------------------------------------------------|
-----------------------------------------5--5--5---|
--5--------5---------5---------5---------5--5--5---|
--5-(7x)---5--(7x)---5--(7x)---5--(7x)---3--3--3---|
--3--------3---------3---------3-------------------|


Solo:
----6-----6------8-----8-----10-----10---------------------|
----6-----6------8-----8-----10-----10---------------------|
-8b----8b----10b----10b----12b---12b-----12p10----12--10---|
------------------------------------------------12---------|
-----------------------------------------------------------|
-----------------------------------------------------------|


----6-----6------8-----8------10---13p12p10----------------------|
----6-----6------8-----8------10-------------13p12p10------------|
-8b----8b----10b----10b---12b--------------------------12--10----|
-----------------------------------------------------------------|
-----------------------------------------------------------------|
-----------------------------------------------------------------|

----------------------13p12p10------------13p12p10---------------------|
--13p12p10--13p12p10------------13p12p10------------13p12p10-----------|
---------------------------------------------------------------12--10--|
-----------------------------------------------------------------------|
-----------------------------------------------------------------------|
-----------------------------------------------------------------------|

------------------------------------10-----------------------10---------------|
---------------10--11--10-----------10-----------------------10---------------|
12-12--10-12--------------12--10---12b--12p10-----10----12b-----12p10---------|
------------------------------------------------12---------------------12--12-|
------------------------------------------------------------------------------|
------------------------------------------------------------------------------|


Refrain:
-----------------------------|
-----------------------------|
-3-3-3-3--5-5-5-5------------|    (4x)
-3-3-3-3--5-5-5-5--5-5-5-5---|
-1-1-1-1--3-3-3-3--5-5-5-5---|
-------------------3-3-3-3---|


-------------------------------|
-------------------------------|
-3-3-3-3-3---7--6--5--4--3--2--|
-3-3-3-3-3---7--6--5--4--3--2--|
-1-1-1-1-1---5--4--3--2--1--0--|
-------------------------------|


-----------------------------|
-----------------------------|
-3-3-3-3--5-5-5-5------------|    (2x)
-3-3-3-3--5-5-5-5--5-5-5-5---|
-1-1-1-1--3-3-3-3--5-5-5-5---|
-------------------3-3-3-3---|


--------------------|
--------------------|
--------------------|
--5-3---------------|
-------5-3-----3----|
------------6-------|


-----------------------------|
-----------------------------|
-3-3-3-3--5-5-5-5------------|
-3-3-3-3--5-5-5-5--5-5-5-5---|
-1-1-1-1--3-3-3-3--5-5-5-5---|
-------------------3-3-3-3---|


-------------------------------|
-------------------------------|
-3-3-3-3-3---7--6--5--4--3--2--|
-3-3-3-3-3---7--6--5--4--3--2--|
-1-1-1-1-1---5--4--3--2--1--0--|
-------------------------------|


Outro:

------------------------------------------------------------------|
------------------------------3---------------3-------------------|
---------------3-------5-----------------------------5------3-----|
-5---------5-5-----5-5----5-5-----5-------5-5----5-5----5-5-------|
-5--(7x)--------------------------5-(7x)--------------------------|
-3--------------------------------3-------------------------------|

------------3--3h6-3h6--3--3----------------------------------|
---------5--3--3h6-3h6--3--3----------------------------------|
---------5-----------------------------3h5p3--5b-5b--5p3------|
-5-----------------------------5-------3h5p3--5b-5b--5p3--5---|
-5-(7x)------------------------5-(7x)---------------------5---|
-3-----------------------------3------------------------------|

---------3h6--3h6--3h6--6-6----6p5p3--------------------------------|
---------3h6--3h6--3h6--3-3------------6p5p3------------------------|
-----------------------------------------------5p4p3------3---------|
-5----------------------------------------------------5-------------|
-5-(7x)-------------------------------------------------------------|
-3------------------------------------------------------------------|

-------------------------------|
-------------------------------|
--3--5p3--5b--5b--5p3-----3----|
-----------------------5-------|
-------------------------------|
-------------------------------|

-6--6--6---8---8---8----10--10---10----14---------------|
-8b-8b-8b--10b-10b-10b--12b-12b--12b---16b--------------|
--------------------------------------------------------|
----------------------------------------------5---5-----|
----------------------------------------------5---5-----|
----------------------------------------------3---3-----|


tabbed by Malle
Rock'n'Roll Genossen
Related for Rock N Roll Plenum tab