Song name
# A B C D E F G H I J K L M N O P Q R S T U V W X Y Z

Rude Kostry - Bohyne Ticha tab

-------------------------------------------------------------------------------
			     BOHYNE TICHA - Rude Kostry
-------------------------------------------------------------------------------

Tabbed by: Miky	
Email: dondebiloinkognito@seznam.cz

Tuning: Standard


e|-----5---3---2-|--5---1-1-3-|-----------------------|----5-7-/12-----10---------|
B|------2---2----|---3---3----|-------2---3--5p3----6-|-5---------8h10---7h10p7/3-|
G|-----------2---|----2-------|---2-----0-------------|---6-----------------------|
D|---2-----------|-0----------|-2------2---4----2/3~~-|---------------------------|
A|-0-------------|------------|--0--4-----------------|-0-------------------------|
E|---------------|------------|-----------------------|---------------------------|

e|--------------------2-0---1----------|
B|------------0-2p3p5-3-----3-----<12>-|
G|-----------2--------2----------------|
D|----------2------------2/3-----------|
A|-3-2-3-2-0----0----------------------|
E|-1-0-1-3-----------------------------|




| /  slide up
| \  slide down
| h  hammer-on
| p  pull-off
| ~  vibrato
| +  harmonic
| x  Mute note

===============================================================================
 
Tap to rate this tab
# A B C D E F G H I J K L M N O P Q R S T U V W X Y Z