Song name
# A B C D E F G H I J K L M N O P Q R S T U V W X Y Z

Rudimental - Not Giving In tab

Rudimental: Not Giving In 

My second Tab :P

h: hammer on
~: vibrato 
/: slide
E--------------------------------|
B--------------------------------|
G--------------------------------|
D-----------5-5h7--5-------------|   x4  
A--------7------------7--7-------|
E--5--8--------------------------|

E---------------------------------------------|
B---------------------------------------------|         Keep on repeating
G---------------------------------------------|            and Enjoy :)
D---------------------------------------------|   x4   
A--/12--10~-----10h12-------------------------|
E----------12---------12--10--8--5--8--10-8--8|
Tap to rate this tab
# A B C D E F G H I J K L M N O P Q R S T U V W X Y Z