Song name
# A B C D E F G H I J K L M N O P Q R S T U V W X Y Z

Rudimentary Peni - Radio Schizo tab

G|----------------------------------|
D|--------------------------12-10-9-|
A|-7-77-7-77-77-10------------------| x8
E|----------------10-1010-----------|

G|-------------------------------------|
D|----------------99910101099910101010-|
A|-7-77-7-77-77-10---------------------| x1
E|-------------------------------------|

G|-------------------------------------|
D|----------------7778887778888--------|
A|-7-77-7-77-77-10---------------------| x1
E|-------------------------------------|

G|-------------------------------------|
D|----------------5556665556666--------|
A|-7-77-7-77-77-10---------------------| x1
E|-------------------------------------|

G|----------------12/12/12/13/13/13/12/12/12/13/13/13/12/12/15/15/15--|
D|--------------------------------------------------------------------|
A|-7-77-7-77-77-10----------------------------------------------------|
E|--------------------------------------------------------------------|

13/13/13/12/12/12/13/13/13/12/12/15/15/15/13/13/13/12/12/12/---------|
---------------------------------------------------------------------|
---------------------------------------------------------------------|
---------------------------------------------------------------------|

G|-------------------9--|
D|----------------------|
A|-7-77-7-77-77-77-77---| x1 Ending
E|----------------------|

By Germ :} thats pretty much it i think
Tap to rate this tab
# A B C D E F G H I J K L M N O P Q R S T U V W X Y Z