Song name
# A B C D E F G H I J K L M N O P Q R S T U V W X Y Z

Rudimentary Peni - Echo tab

-------------------------------------------------------------------------------
Echo - Rudimentary Peni
Echoes Of Anguish
-------------------------------------------------------------------------------
Tabbed by: axeslash
Email: holmzito@yahoo.com

Tuning: Standard

e|-----------------------------------------------------------------|
B|-----------------------------------------------------------------|
G|-------10--10-10-10-10-10-10-10--9-9-9---------------------------|
D|-7-7/--10--10-10-10-10-10-10-10--9-9-9-10--10-10-10-10-10-10-10--|
A|-7-7/---8---8--8--8--8--8--8--8--7-7-7-10--10-10-10-10-10-10-10--|
E|-5-5/-----------------------------------8---8--8--8--8--8--8--8--| x8

e|-----------------------------------|
B|-----------------------------------|
G|-9---------------------------------|
D|-9---------------------------------|
A|-7---------------------------------|
E|-----------------------------------|

e|---------------------------------------------------------------|
B|-9-9-9-9-9-9-9-9-9-9-9-9-9-9-9-9-9-9-9-9-9-9-9-9-9-9-9-9-9-9-9-|
G|-9-9-9-9-9-9-9-9-9-9-9-9-9-9-9-9-9-9-9-9-9-9-9-9-9-9-9-9-9-9-9-|
D|-9-9-9-9-9-9-9-9-9-9-9-9-9-9-9-9-9-9-9-9-9-9-9-9-9-9-9-9-9-9-9-|
A|-7-7-7-7-7-7-7-7-7-7-7-7-7-7-7-7-7-7-7-7-7-7-7-7-7-7-7-7-7-7-7-|
E|---------------------------------------------------------------| x10


| /  slide up
| \  slide down
| h  hammer-on
| p  pull-off
| ~  vibrato
| +  harmonic
| x  Mute note
===============================================================================
Tap to rate this tab
 
# A B C D E F G H I J K L M N O P Q R S T U V W X Y Z