Song name
# A B C D E F G H I J K L M N O P Q R S T U V W X Y Z

Rudimentary Peni - Teenage Time Killer tab

e--8-8-8-10b-10-10---------------8-8-8-10b-10-10-15-15-15-15-15-15-15-15-|
B------------------8-10-10b-10-8-----------------------------------------|
G------------------------------------------------------------------------|
D------------------------------------------------------------------------|
A------------------------------------------------------------------------|
E------------------------------------------------------------------------|
-
Still going...

e--15-15-15-15-13-13-13-13-11-11-13-11-14-11-13-11-15-15-15-15-13-13-13-13-10-10-10-10-10-|
B-----------------------------------------------------------------------------------------|
G-----------------------------------------------------------------------------------------|
D-----------------------------------------------------------------------------------------|
A-----------------------------------------------------------------------------------------|
E-----------------------------------------------------------------------------------------|

Strum the d#(the 10th fret on 1st string) a few more times..this leads into the next part.

------------------------------------------------------------------------------------

Riff 1

e--------------------------------------------------------------|
B--------------------------------------------------------------|
G--------------------------------------------------------------|
D--5-5-5-5/6-6-6-6---------------------3-3-3-3/5-5-5-5---------|
A--3-3-3-3/4-4-4-4-5-5-5-5-5-5-5-5-1-1-1-1-1-1/3-3-3-3-5-5-5-5-|
E------------------3-3-3-3-3-3-3-3-3-3-----------------3-3-3-3-| Repeats throughout the song.

And the solo is just the intro but played faster
Tap to rate this tab
 
# A B C D E F G H I J K L M N O P Q R S T U V W X Y Z