Song name
# A B C D E F G H I J K L M N O P Q R S T U V W X Y Z

Rudimentary Peni - One And All tab

Rudimentary Peni - One And All
Archaic EP (2004)
Tabbed By ruker
Standard Tuning EADGBE

--------------
Key:
--------------
.   Palm Mute
~   Vibrato
h   Hammer-On
p   Pull-Off
b   Bend
r   Release
/   Slide Up
\   Slide Down
--------------


Riff A (0:00)     12x
||-------------------||
||*-----------------*||
||-------------------||
||--6-6-5-3-5-5-5-5--||
||*-6-6-5-3-5-5-5-5-*||
||--4-4-3-1-3-3-3-3--||


Riff B (0:23)      8x
||-------------------||
||*-----------------*||
||--6-6-5-3-5-5-5-5--||
||--6-6-5-3-5-5-5-5--||
||*-4-4-3-1-3-3-3-3-*||
||-------------------||


Riff A (0:38)     10x
||-------------------||
||*-----------------*||
||-------------------||
||--6-6-5-3-5-5-5-5--||
||*-6-6-5-3-5-5-5-5-*||
||--4-4-3-1-3-3-3-3--||


Riff B (0:56)     11x 
||-------------------|-----------------||
||*-----------------*|-----------------||
||--6-6-5-3-5-5-5-5--|-6-6-5-3-5-5-5\--||
||--6-6-5-3-5-5-5-5--|-6-6-5-3-5-5-5\--||
||*-4-4-3-1-3-3-3-3-*|-4-4-3-1-3-3-3\--||
||-------------------|-----------------||
Tap to rate this tab
# A B C D E F G H I J K L M N O P Q R S T U V W X Y Z