Song name
# A B C D E F G H I J K L M N O P Q R S T U V W X Y Z

Rudimentary Peni - Farewell Tomorrow tab

Rudimentary Peni - Farewell Tomorrow
Archaic EP (2004)
Tabbed By ruker
Standard Tuning EADGBE

--------------
Key:
--------------
.   Palm Mute
~   Vibrato
h   Hammer-On
p   Pull-Off
b   Bend
r   Release
/   Slide Up
\   Slide Down
--------------


Only Riff (0:02)                   8x
||-----------------------------------|-------------||
||*---------------------------------*|-------------||
||--------------5-5-3-3-2-2----------|-------------||
||--5-5-3-3-2-2-5-5-3-3-2-2-5-5-3-3--|-5~----------||
||*-5-5-3-3-2-2-3-3-1-1-0-0-5-5-3-3-*|-5~----------||
||--3-3-1-1-0-0-------------3-3-1-1--|-3~----------||


Yeah, that's it...
Tap to rate this tab
 
# A B C D E F G H I J K L M N O P Q R S T U V W X Y Z