Song name
# A B C D E F G H I J K L M N O P Q R S T U V W X Y Z

Rudimentary Peni - The Curse tab

Rudimentary Peni - The Curse
Archaic EP (2004)
Tabbed By ruker
Standard Tuning EADGBE

--------------
Key:
--------------
.   Palm Mute
~   Vibrato
h   Hammer-On
p   Pull-Off
b   Bend
r   Release
/   Slide Up
\   Slide Down
--------------


Riff A (0:08)                      6x
||-----------------------------------||
||*---------------------------------*||
||-----------------------------------||
||--5-5-5-3-2-2-2-2-3-3-3-5-6-6-6-6--||
||*-5-5-5-3-2-2-2-2-3-3-3-5-6-6-6-6-*||
||--3-3-3-1-0-0-0-0-1-1-1-3-4-4-4-4--||

Riff B (0:32)                              4x
||-------------------------------------------||
||*-----------------------------------------*||
||--5-5-5-5-8-8-8-8-10-10-10-10-12-12-12-12--||
||--5-5-5-5-8-8-8-8-10-10-10-10-12-12-12-12--||
||*-3-3-3-3-6-6-6-6-8--8--8--8--10-10-10-10-*||
||-------------------------------------------||

Riff A (0:48)                      6x
||-----------------------------------||
||*---------------------------------*||
||-----------------------------------||
||--5-5-5-3-2-2-2-2-3-3-3-5-6-6-6-6--||
||*-5-5-5-3-2-2-2-2-3-3-3-5-6-6-6-6-*||
||--3-3-3-1-0-0-0-0-1-1-1-3-4-4-4-4--||

Riff B (1:12)                              4x
||-------------------------------------------|------||
||*-----------------------------------------*|------||
||--5-5-5-5-8-8-8-8-10-10-10-10-12-12-12-12--|-5----||
||--5-5-5-5-8-8-8-8-10-10-10-10-12-12-12-12--|-5----||
||*-3-3-3-3-6-6-6-6-8--8--8--8--10-10-10-10-*|-3----||
||-------------------------------------------|------||
Tap to rate this tab
 
# A B C D E F G H I J K L M N O P Q R S T U V W X Y Z