Song name
# A B C D E F G H I J K L M N O P Q R S T U V W X Y Z

Rudimentary Peni - Mercy Of Slumber tab

Rudimentary Peni - Mercy Of Slumber
Archaic EP (2004)
Tabbed By ruker
Standard Tuning EADGBE

--------------
Key:
--------------
.   Palm Mute
~   Vibrato
h   Hammer-On
p   Pull-Off
b   Bend
r   Release
/   Slide Up
\   Slide Down
--------------


Intro (0:00)            2x
||------------------------||
||*----------------------*||
||-----------4-----5------||
||--5--2-----4-----5------||
||*-5--2-----2-----3-----*||
||--3--0------------------||

Riff A (0:08)                  22x
||--------------------------------||
||*------------------------------*||
||-------------4-4-4-4-5-5-5-5-5--||
||--5--2-2-2-2-4-4-4-4-5-5-5-5-5--||
||*-5--2-2-2-2-2-2-2-2-3-3-3-3-3-*||
||--3--0-0-0-0--------------------||

Outro (1:38)
||-----------------||
||-----------------||
||-----------------||
||-5--2------------||
||-5--2------------||
||-3--0------------||

Riff A gradually speeds up at the 12th repeat.
Tap to rate this tab
# A B C D E F G H I J K L M N O P Q R S T U V W X Y Z