Song name
# A B C D E F G H I J K L M N O P Q R S T U V W X Y Z

Rudimentary Peni - Rehearsal For Mortality tab

Rudimentary Peni - Rehearsal For Mortality
Archaic EP (2004)
Tabbed By ruker
Standard Tuning EADGBE

--------------
Key:
--------------
.   Palm Mute
~   Vibrato
h   Hammer-On
p   Pull-Off
b   Bend
r   Release
/   Slide Up
\   Slide Down
--------------


Riff A (0:00)                                                      5x
||-------------------------------------------------------------------||
||*-----------------------------------------------------------------*||
||-------------------------------------------------------------------||
||--2-2-2-2-2-2-55552-2-2-2-2-2-55552-2-2-2-2-2-55554-4-4-4-4-4-5-4--||
||*-2-2-2-2-2-2-55552-2-2-2-2-2-55552-2-2-2-2-2-55554-4-4-4-4-4-5-4-*||
||--0-0-0-0-0-0-33330-0-0-0-0-0-33330-0-0-0-0-0-33332-2-2-2-2-2-3-2--||



Riff B (0:52)
||-----------------------------------------------------------------|
||-----------------------------------------------------------------|
||-----------------------------------------------------------------|
||-2-2-2-2-2-2-55552-2-2-2-2-2-55552-2-2-2-2-2-55557-7-7-7-7-7-5-4-|
||-2-2-2-2-2-2-55552-2-2-2-2-2-55552-2-2-2-2-2-55557-7-7-7-7-7-5-4-|
||-0-0-0-0-0-0-33330-0-0-0-0-0-33330-0-0-0-0-0-33335-5-5-5-5-5-3-2-|


|-----------------------------------------------------------------------||
|-----------------------------------------------------------------------||
|-----------------------------------------------------------------------||
|-2-2-2-2-2-2-55552-2-2-2-2-2-55552-2-2-2-2-2-55557-7-7-7-7-7-5-4-2-----||
|-2-2-2-2-2-2-55552-2-2-2-2-2-55552-2-2-2-2-2-55557-7-7-7-7-7-5-4-2-----||
|-0-0-0-0-0-0-33330-0-0-0-0-0-33330-0-0-0-0-0-33335-5-5-5-5-5-3-2-0-----||
Tap to rate this tab
 
# A B C D E F G H I J K L M N O P Q R S T U V W X Y Z