Song name
# A B C D E F G H I J K L M N O P Q R S T U V W X Y Z

Rudimentary Peni - House Of The Void tab

Rudimentary Peni - House Of The Void
Archaic EP (2004)
Tabbed By ruker
Standard Tuning EADGBE

--------------
Key:
--------------
.   Palm Mute
~   Vibrato
h   Hammer-On
p   Pull-Off
b   Bend
r   Release
/   Slide Up
\   Slide Down
--------------


Riff A (0:01)                                                      4x
||-------------------------------------------------------------------||
||*-----------------------------------------------------------------*||
||-------------------------------------------------------------------||
||--6-6-6-6-6-6-6-6-2-2-2-2-2-2-2-2-4-4-4-4-4-4-4-4-4-4-4-4-4-4-4-4--||
||*-6-6-6-6-6-6-6-6-2-2-2-2-2-2-2-2-4-4-4-4-4-4-4-4-4-4-4-4-4-4-4-4-*||
||--4-4-4-4-4-4-4-4-0-0-0-0-0-0-0-0-2-2-2-2-2-2-2-2-2-2-2-2-2-2-2-2--||



Riff B (0:20)                                                      2x
||-------------------------------------------------------------------||
||*-----------------------------------------------------------------*||
||----------------------------------8-8-8-8-8-8-8-8-8-8-8-8-8-8-8-8--||
||--6-6-6-6-6-6-6-6-9-9-9-9-9-9-9-9-8-8-8-8-8-8-8-8-8-8-8-8-8-8-8-8--||
||*-6-6-6-6-6-6-6-6-9-9-9-9-9-9-9-9-6-6-6-6-6-6-6-6-6-6-6-6-6-6-6-6-*||
||--4-4-4-4-4-4-4-4-7-7-7-7-7-7-7-7----------------------------------||



Riff A (0:29)                                                      2x
||-------------------------------------------------------------------||
||*-----------------------------------------------------------------*||
||-------------------------------------------------------------------||
||--6-6-6-6-6-6-6-6-2-2-2-2-2-2-2-2-4-4-4-4-4-4-4-4-4-4-4-4-4-4-4-4--||
||*-6-6-6-6-6-6-6-6-2-2-2-2-2-2-2-2-4-4-4-4-4-4-4-4-4-4-4-4-4-4-4-4-*||
||--4-4-4-4-4-4-4-4-0-0-0-0-0-0-0-0-2-2-2-2-2-2-2-2-2-2-2-2-2-2-2-2--||



Riff B (0:38)                                                      7x
||-------------------------------------------------------------------|
||*-----------------------------------------------------------------*|
||----------------------------------8-8-8-8-8-8-8-8-8-8-8-8-8-8-8-8--|
||--6-6-6-6-6-6-6-6-9-9-9-9-9-9-9-9-8-8-8-8-8-8-8-8-8-8-8-8-8-8-8-8--|
||*-6-6-6-6-6-6-6-6-9-9-9-9-9-9-9-9-6-6-6-6-6-6-6-6-6-6-6-6-6-6-6-6-*|
||--4-4-4-4-4-4-4-4-7-7-7-7-7-7-7-7----------------------------------|


|--------------------------------------||
|--------------------------------------||
|---------------------------------8\---||
|-6-6-6-6-6-6-6-6-9-9-9-9-9-9-9-9-8\---||
|-6-6-6-6-6-6-6-6-9-9-9-9-9-9-9-9-6\---||
|-4-4-4-4-4-4-4-4-7-7-7-7-7-7-7-7------||
Tap to rate this tab
# A B C D E F G H I J K L M N O P Q R S T U V W X Y Z