Song name
# A B C D E F G H I J K L M N O P Q R S T U V W X Y Z

Rudimentary Peni - The Enlightened Dreamer tab

Rudimentary Peni - The Enlightened Dreamer
Archaic EP (2004)
Tabbed By ruker
Standard Tuning EADGBE

--------------
Key:
--------------
.   Palm Mute
~   Vibrato
h   Hammer-On
p   Pull-Off
b   Bend
r   Release
/   Slide Up
\   Slide Down
--------------


Riff A (0:09)                      6x
||-----------------------------------||
||*---------------------------------*||
||-----------------------------------||
||--7-7-5-5-3-3-5-5-2-2-2-2-2-2-5-5--||
||*-7-7-5-5-3-3-5-5-2-2-2-2-2-2-5-5-*||
||--5-5-3-3-1-1-3-3-0-0-0-0-0-0-3-3--||



Fill A (0:29)
||-----------------||
||-----------------||
||-----------------||
||-7-7-5-5-3-3-5-5-||
||-7-7-5-5-3-3-5-5-||
||-5-5-3-3-1-1-3-3-||



Riff B (0:32)                          2x
||---------------------------------------||
||*-------------------------------------*||
||--9-9-9-9-9-9-12-12-9-9-11-11-7-7-7-7--||
||--9-9-9-9-9-9-12-12-9-9-11-11-7-7-7-7--||
||*-7-7-7-7-7-7-10-10-7-7-9--9--5-5-5-5-*||
||---------------------------------------||



Fill B (0:40)
||-----------------||
||-----------------||
||-----------------||
||-2-2-2-2-2-2-2-2-||
||-2-2-2-2-2-2-2-2-||
||-0-0-0-0-0-0-0-0-||



Riff A (0:42)                      3x
||-----------------------------------||
||*---------------------------------*||
||-----------------------------------||
||--7-7-5-5-3-3-5-5-2-2-2-2-2-2-5-5--||
||*-7-7-5-5-3-3-5-5-2-2-2-2-2-2-5-5-*||
||--5-5-3-3-1-1-3-3-0-0-0-0-0-0-3-3--||



Fill A (0:54)
||-----------------||
||-----------------||
||-----------------||
||-7-7-5-5-3-3-5-5-||
||-7-7-5-5-3-3-5-5-||
||-5-5-3-3-1-1-3-3-||



Riff B (0:56)                          2x
||---------------------------------------||
||*-------------------------------------*||
||--9-9-9-9-9-9-12-12-9-9-11-11-7-7-7-7--||
||--9-9-9-9-9-9-12-12-9-9-11-11-7-7-7-7--||
||*-7-7-7-7-7-7-10-10-7-7-9--9--5-5-5-5-*||
||---------------------------------------||



Outro (1:04)
||----------||
||----------||
||----------||
||-2~-------||
||-2~-------||
||-0~-------||
Tap to rate this tab
 
# A B C D E F G H I J K L M N O P Q R S T U V W X Y Z